  0
SECTION
  2
HEADER
  9
$ACADVER
  1
AC1015
  9
$ACADMAINTVER
 70
    20
  9
$DWGCODEPAGE
  3
ANSI_932
  9
$INSBASE
 10
0.0
 20
0.0
 30
0.0
  9
$EXTMIN
 10
37887.63777641601
 20
37017.96972883806
 30
0.0
  9
$EXTMAX
 10
41744.87367657739
 20
39710.27600878132
 30
0.0
  9
$LIMMIN
 10
0.0
 20
0.0
  9
$LIMMAX
 10
100000.0
 20
70730.0
  9
$ORTHOMODE
 70
     0
  9
$REGENMODE
 70
     1
  9
$FILLMODE
 70
     1
  9
$QTEXTMODE
 70
     0
  9
$MIRRTEXT
 70
     1
  9
$LTSCALE
 40
10.0
  9
$ATTMODE
 70
     1
  9
$TEXTSIZE
 40
0.2
  9
$TRACEWID
 40
0.05
  9
$TEXTSTYLE
  7
STANDARD
  9
$CLAYER
  8
0
  9
$CELTYPE
  6
CONTINUOUS
  9
$CECOLOR
 62
   256
  9
$CELTSCALE
 40
1.0
  9
$DISPSILH
 70
     0
  9
$DIMSCALE
 40
1.0
  9
$DIMASZ
 40
0.18
  9
$DIMEXO
 40
0.0625
  9
$DIMDLI
 40
0.38
  9
$DIMRND
 40
0.0
  9
$DIMDLE
 40
0.0
  9
$DIMEXE
 40
0.18
  9
$DIMTP
 40
0.0
  9
$DIMTM
 40
0.0
  9
$DIMTXT
 40
0.18
  9
$DIMCEN
 40
0.09
  9
$DIMTSZ
 40
0.0
  9
$DIMTOL
 70
     0
  9
$DIMLIM
 70
     0
  9
$DIMTIH
 70
     1
  9
$DIMTOH
 70
     1
  9
$DIMSE1
 70
     0
  9
$DIMSE2
 70
     0
  9
$DIMTAD
 70
     0
  9
$DIMZIN
 70
     0
  9
$DIMBLK
  1

  9
$DIMASO
 70
     1
  9
$DIMSHO
 70
     1
  9
$DIMPOST
  1

  9
$DIMAPOST
  1

  9
$DIMALT
 70
     0
  9
$DIMALTD
 70
     2
  9
$DIMALTF
 40
25.4
  9
$DIMLFAC
 40
1.0
  9
$DIMTOFL
 70
     0
  9
$DIMTVP
 40
0.0
  9
$DIMTIX
 70
     0
  9
$DIMSOXD
 70
     0
  9
$DIMSAH
 70
     0
  9
$DIMBLK1
  1

  9
$DIMBLK2
  1

  9
$DIMSTYLE
  2
Standard
  9
$DIMCLRD
 70
     0
  9
$DIMCLRE
 70
     0
  9
$DIMCLRT
 70
     0
  9
$DIMTFAC
 40
1.0
  9
$DIMGAP
 40
0.09
  9
$DIMJUST
 70
     0
  9
$DIMSD1
 70
     0
  9
$DIMSD2
 70
     0
  9
$DIMTOLJ
 70
     1
  9
$DIMTZIN
 70
     0
  9
$DIMALTZ
 70
     0
  9
$DIMALTTZ
 70
     0
  9
$DIMUPT
 70
     0
  9
$DIMDEC
 70
     4
  9
$DIMTDEC
 70
     4
  9
$DIMALTU
 70
     2
  9
$DIMALTTD
 70
     2
  9
$DIMTXSTY
  7
STANDARD
  9
$DIMAUNIT
 70
     0
  9
$DIMADEC
 70
     0
  9
$DIMALTRND
 40
0.0
  9
$DIMAZIN
 70
     0
  9
$DIMDSEP
 70
    46
  9
$DIMATFIT
 70
     3
  9
$DIMFRAC
 70
     0
  9
$DIMLDRBLK
  1

  9
$DIMLUNIT
 70
     2
  9
$DIMLWD
 70
    -2
  9
$DIMLWE
 70
    -2
  9
$DIMTMOVE
 70
     2
  9
$LUNITS
 70
     2
  9
$LUPREC
 70
     8
  9
$SKETCHINC
 40
0.1
  9
$FILLETRAD
 40
0.5
  9
$AUNITS
 70
     0
  9
$AUPREC
 70
     0
  9
$MENU
  1
.
  9
$ELEVATION
 40
0.0
  9
$PELEVATION
 40
0.0
  9
$THICKNESS
 40
0.0
  9
$LIMCHECK
 70
     0
  9
$CHAMFERA
 40
0.0
  9
$CHAMFERB
 40
0.0
  9
$CHAMFERC
 40
0.0
  9
$CHAMFERD
 40
0.0
  9
$SKPOLY
 70
     0
  9
$TDCREATE
 40
2459888.846747686
  9
$TDUCREATE
 40
2459888.471754283
  9
$TDUPDATE
 40
2460176.462442130
  9
$TDUUPDATE
 40
2460176.087442130
  9
$TDINDWG
 40
0.0009826620
  9
$TDUSRTIMER
 40
0.0000000116
  9
$USRTIMER
 70
     0
  9
$ANGBASE
 50
0.0
  9
$ANGDIR
 70
     0
  9
$PDMODE
 70
     0
  9
$PDSIZE
 40
0.0
  9
$PLINEWID
 40
0.0
  9
$SPLFRAME
 70
     0
  9
$SPLINETYPE
 70
     6
  9
$SPLINESEGS
 70
     8
  9
$HANDSEED
  5
4D8
  9
$SURFTAB1
 70
     6
  9
$SURFTAB2
 70
     6
  9
$SURFTYPE
 70
     6
  9
$SURFU
 70
     6
  9
$SURFV
 70
     6
  9
$UCSBASE
  2

  9
$UCSNAME
  2

  9
$UCSORG
 10
0.0
 20
0.0
 30
0.0
  9
$UCSXDIR
 10
1.0
 20
0.0
 30
0.0
  9
$UCSYDIR
 10
0.0
 20
1.0
 30
0.0
  9
$UCSORTHOREF
  2

  9
$UCSORTHOVIEW
 70
     0
  9
$UCSORGTOP
 10
0.0
 20
0.0
 30
0.0
  9
$UCSORGBOTTOM
 10
0.0
 20
0.0
 30
0.0
  9
$UCSORGLEFT
 10
0.0
 20
0.0
 30
0.0
  9
$UCSORGRIGHT
 10
0.0
 20
0.0
 30
0.0
  9
$UCSORGFRONT
 10
0.0
 20
0.0
 30
0.0
  9
$UCSORGBACK
 10
0.0
 20
0.0
 30
0.0
  9
$PUCSBASE
  2

  9
$PUCSNAME
  2

  9
$PUCSORG
 10
0.0
 20
0.0
 30
0.0
  9
$PUCSXDIR
 10
1.0
 20
0.0
 30
0.0
  9
$PUCSYDIR
 10
0.0
 20
1.0
 30
0.0
  9
$PUCSORTHOREF
  2

  9
$PUCSORTHOVIEW
 70
     0
  9
$PUCSORGTOP
 10
0.0
 20
0.0
 30
0.0
  9
$PUCSORGBOTTOM
 10
0.0
 20
0.0
 30
0.0
  9
$PUCSORGLEFT
 10
0.0
 20
0.0
 30
0.0
  9
$PUCSORGRIGHT
 10
0.0
 20
0.0
 30
0.0
  9
$PUCSORGFRONT
 10
0.0
 20
0.0
 30
0.0
  9
$PUCSORGBACK
 10
0.0
 20
0.0
 30
0.0
  9
$USERI1
 70
     0
  9
$USERI2
 70
     0
  9
$USERI3
 70
     0
  9
$USERI4
 70
     0
  9
$USERI5
 70
     0
  9
$USERR1
 40
0.0
  9
$USERR2
 40
0.0
  9
$USERR3
 40
0.0
  9
$USERR4
 40
0.0
  9
$USERR5
 40
0.0
  9
$WORLDVIEW
 70
     1
  9
$SHADEDGE
 70
     3
  9
$SHADEDIF
 70
    70
  9
$TILEMODE
 70
     1
  9
$MAXACTVP
 70
    64
  9
$PINSBASE
 10
0.0
 20
0.0
 30
0.0
  9
$PLIMCHECK
 70
     0
  9
$PEXTMIN
 10
1.000000000000000E+20
 20
1.000000000000000E+20
 30
1.000000000000000E+20
  9
$PEXTMAX
 10
-1.000000000000000E+20
 20
-1.000000000000000E+20
 30
-1.000000000000000E+20
  9
$PLIMMIN
 10
0.0
 20
0.0
  9
$PLIMMAX
 10
12.0
 20
9.0
  9
$UNITMODE
 70
     0
  9
$VISRETAIN
 70
     1
  9
$PLINEGEN
 70
     0
  9
$PSLTSCALE
 70
     1
  9
$TREEDEPTH
 70
  3020
  9
$CMLSTYLE
  2
Standard
  9
$CMLJUST
 70
     0
  9
$CMLSCALE
 40
1.0
  9
$PROXYGRAPHICS
 70
     1
  9
$MEASUREMENT
 70
     0
  9
$CELWEIGHT
370
    -1
  9
$ENDCAPS
280
     0
  9
$JOINSTYLE
280
     0
  9
$LWDISPLAY
290
     0
  9
$INSUNITS
 70
     0
  9
$HYPERLINKBASE
  1

  9
$STYLESHEET
  1

  9
$XEDIT
290
     1
  9
$CEPSNTYPE
380
     3
  9
$CEPSNID
390
11
  9
$PSTYLEMODE
290
     1
  9
$FINGERPRINTGUID
  2
{9B2103D7-6F41-462B-89A1-5C34DEB2BD1B}
  9
$VERSIONGUID
  2
{FAEB1C32-E019-11D5-929B-00C0DF256EC4}
  9
$EXTNAMES
290
     1
  9
$PSVPSCALE
 40
0.0
  9
$OLESTARTUP
290
     0
  0
ENDSEC
  0
SECTION
  2
CLASSES
  0
CLASS
  1
ACDBDICTIONARYWDFLT
  2
AcDbDictionaryWithDefault
  3
ObjectDBX Classes
 90
        0
280
     0
281
     0
  0
CLASS
  1
SCALE
  2
AcDbScale
  3
ObjectDBX Classes
 90
     1153
280
     0
281
     0
  0
CLASS
  1
VISUALSTYLE
  2
AcDbVisualStyle
  3
ObjectDBX Classes
 90
     4095
280
     0
281
     0
  0
CLASS
  1
MATERIAL
  2
AcDbMaterial
  3
ObjectDBX Classes
 90
     1153
280
     0
281
     0
  0
CLASS
  1
TABLESTYLE
  2
AcDbTableStyle
  3
ObjectDBX Classes
 90
     4095
280
     0
281
     0
  0
CLASS
  1
MLEADERSTYLE
  2
AcDbMLeaderStyle
  3
ACDB_MLEADERSTYLE_CLASS
 90
     4095
280
     0
281
     0
  0
CLASS
  1
DICTIONARYVAR
  2
AcDbDictionaryVar
  3
ObjectDBX Classes
 90
        0
280
     0
281
     0
  0
CLASS
  1
CELLSTYLEMAP
  2
AcDbCellStyleMap
  3
ObjectDBX Classes
 90
     1152
280
     0
281
     0
  0
CLASS
  1
ACDBSECTIONVIEWSTYLE
  2
AcDbSectionViewStyle
  3
ObjectDBX Classes
 90
     1025
280
     0
281
     0
  0
CLASS
  1
ACDBDETAILVIEWSTYLE
  2
AcDbDetailViewStyle
  3
ObjectDBX Classes
 90
     1025
280
     0
281
     0
  0
CLASS
  1
ACDBPLACEHOLDER
  2
AcDbPlaceHolder
  3
ObjectDBX Classes
 90
        0
280
     0
281
     0
  0
CLASS
  1
LAYOUT
  2
AcDbLayout
  3
ObjectDBX Classes
 90
        0
280
     0
281
     0
  0
ENDSEC
  0
SECTION
  2
TABLES
  0
TABLE
  2
VPORT
  5
8
330
0
100
AcDbSymbolTable
 70
     1
  0
VPORT
  5
3C7
330
8
100
AcDbSymbolTableRecord
100
AcDbViewportTableRecord
  2
*Active
 70
     0
 10
0.0
 20
0.0
 11
1.0
 21
1.0
 12
39816.2557264967
 22
39158.59042069379
 13
0.0
 23
0.0
 14
0.5
 24
0.5
 15
0.5
 25
0.5
 16
0.0
 26
0.0
 36
1.0
 17
0.0
 27
0.0
 37
0.0
 40
4141.917257501628
 41
1.351851851851851
 42
50.0
 43
0.0
 44
0.0
 50
0.0
 51
0.0
 71
     0
 72
   100
 73
     1
 74
     3
 75
     0
 76
     0
 77
     0
 78
     0
281
     0
 65
     1
110
0.0
120
0.0
130
0.0
111
1.0
121
0.0
131
0.0
112
0.0
122
1.0
132
0.0
 79
     0
146
0.0
1001
ACAD_NAV_VCDISPLAY
1070
     3
  0
ENDTAB
  0
TABLE
  2
LTYPE
  5
5
330
0
100
AcDbSymbolTable
 70
    51
  0
LTYPE
  5
14
330
5
100
AcDbSymbolTableRecord
100
AcDbLinetypeTableRecord
  2
ByBlock
 70
     0
  3

 72
    65
 73
     0
 40
0.0
  0
LTYPE
  5
15
330
5
100
AcDbSymbolTableRecord
100
AcDbLinetypeTableRecord
  2
ByLayer
 70
     0
  3

 72
    65
 73
     0
 40
0.0
  0
LTYPE
  5
16
330
5
100
AcDbSymbolTableRecord
100
AcDbLinetypeTableRecord
  2
CONTINUOUS
 70
     0
  3
実線
 72
    65
 73
     0
 40
0.0
  0
LTYPE
  5
21
330
5
100
AcDbSymbolTableRecord
100
AcDbLinetypeTableRecord
  2
DASHED1
 70
     0
  3
--  --  --  --  --  --  --  --  
 72
    65
 73
     2
 40
2.5
 49
1.25
 74
     0
 49
-1.25
 74
     0
  0
LTYPE
  5
22
330
5
100
AcDbSymbolTableRecord
100
AcDbLinetypeTableRecord
  2
DASHED2
 70
     0
  3
----    ----    ----    ----    
 72
    65
 73
     2
 40
5.0
 49
2.5
 74
     0
 49
-2.5
 74
     0
  0
LTYPE
  5
23
330
5
100
AcDbSymbolTableRecord
100
AcDbLinetypeTableRecord
  2
DASHED3
 70
     0
  3
------  ------  ------  ------  
 72
    65
 73
     2
 40
5.0
 49
3.75
 74
     0
 49
-1.25
 74
     0
  0
LTYPE
  5
24
330
5
100
AcDbSymbolTableRecord
100
AcDbLinetypeTableRecord
  2
CENTER1
 70
     0
  3
----- - ----- - ----- - ----- - 
 72
    65
 73
     4
 40
10.0
 49
6.25
 74
     0
 49
-1.25
 74
     0
 49
1.25
 74
     0
 49
-1.25
 74
     0
  0
LTYPE
  5
25
330
5
100
AcDbSymbolTableRecord
100
AcDbLinetypeTableRecord
  2
CENTER2
 70
     0
  3
----------  --  ----------  --  
 72
    65
 73
     4
 40
20.0
 49
12.5
 74
     0
 49
-2.5
 74
     0
 49
2.5
 74
     0
 49
-2.5
 74
     0
  0
LTYPE
  5
26
330
5
100
AcDbSymbolTableRecord
100
AcDbLinetypeTableRecord
  2
PHANTOM1
 70
     0
  3
--- - - --- - - --- - - --- - - 
 72
    65
 73
     6
 40
9.5
 49
3.25
 74
     0
 49
-1.25
 74
     0
 49
1.25
 74
     0
 49
-1.25
 74
     0
 49
1.25
 74
     0
 49
-1.25
 74
     0
  0
LTYPE
  5
27
330
5
100
AcDbSymbolTableRecord
100
AcDbLinetypeTableRecord
  2
PHANTOM2
 70
     0
  3
--------  -  -  --------  -  -  
 72
    65
 73
     6
 40
20.0
 49
10.0
 74
     0
 49
-2.5
 74
     0
 49
1.25
 74
     0
 49
-2.5
 74
     0
 49
1.25
 74
     0
 49
-2.5
 74
     0
  0
LTYPE
  5
28
330
5
100
AcDbSymbolTableRecord
100
AcDbLinetypeTableRecord
  2
DOT
 70
     0
  3
-   -   -   -   -   -   -   -   
 72
    65
 73
     2
 40
2.5
 49
0.625
 74
     0
 49
-1.875
 74
     0
  0
LTYPE
  5
29
330
5
100
AcDbSymbolTableRecord
100
AcDbLinetypeTableRecord
  2
DUMMY
 70
     0
  3
ダミー
 72
    65
 73
     0
 40
0.0
  0
LTYPE
  5
2A
330
5
100
AcDbSymbolTableRecord
100
AcDbLinetypeTableRecord
  2
RAND1
 70
     0
  3
ランダム線1
 72
    65
 73
     4
 40
10.0
 49
1.0
 74
     0
 49
-2.0
 74
     0
 49
3.0
 74
     0
 49
-4.0
 74
     0
  0
LTYPE
  5
2B
330
5
100
AcDbSymbolTableRecord
100
AcDbLinetypeTableRecord
  2
RAND2
 70
     0
  3
ランダム線2
 72
    65
 73
     4
 40
14.0
 49
2.0
 74
     0
 49
-3.0
 74
     0
 49
4.0
 74
     0
 49
-5.0
 74
     0
  0
LTYPE
  5
2C
330
5
100
AcDbSymbolTableRecord
100
AcDbLinetypeTableRecord
  2
RAND3
 70
     0
  3
ランダム線3
 72
    65
 73
     4
 40
18.0
 49
3.0
 74
     0
 49
-4.0
 74
     0
 49
5.0
 74
     0
 49
-6.0
 74
     0
  0
LTYPE
  5
2D
330
5
100
AcDbSymbolTableRecord
100
AcDbLinetypeTableRecord
  2
RAND4
 70
     0
  3
ランダム線4
 72
    65
 73
     4
 40
22.0
 49
4.0
 74
     0
 49
-5.0
 74
     0
 49
6.0
 74
     0
 49
-7.0
 74
     0
  0
LTYPE
  5
2E
330
5
100
AcDbSymbolTableRecord
100
AcDbLinetypeTableRecord
  2
RAND5
 70
     0
  3
ランダム線5
 72
    65
 73
     4
 40
26.0
 49
5.0
 74
     0
 49
-6.0
 74
     0
 49
7.0
 74
     0
 49
-8.0
 74
     0
  0
LTYPE
  5
2F
330
5
100
AcDbSymbolTableRecord
100
AcDbLinetypeTableRecord
  2
LONG1
 70
     0
  3
----------  --  ----------  --  
 72
    65
 73
     4
 40
40.0
 49
32.5
 74
     0
 49
-2.5
 74
     0
 49
2.5
 74
     0
 49
-2.5
 74
     0
  0
LTYPE
  5
30
330
5
100
AcDbSymbolTableRecord
100
AcDbLinetypeTableRecord
  2
LONG2
 70
     0
  3
--------  -  -  --------  -  -  
 72
    65
 73
     6
 40
40.0
 49
30.0
 74
     0
 49
-2.5
 74
     0
 49
1.25
 74
     0
 49
-2.5
 74
     0
 49
1.25
 74
     0
 49
-2.5
 74
     0
  0
LTYPE
  5
31
330
5
100
AcDbSymbolTableRecord
100
AcDbLinetypeTableRecord
  2
LONG3
 70
     0
  3
+++++++++++++++..+++++++++++++++
 72
    65
 73
     2
 40
40.0
 49
37.5
 74
     0
 49
-2.5
 74
     0
  0
LTYPE
  5
32
330
5
100
AcDbSymbolTableRecord
100
AcDbLinetypeTableRecord
  2
LONG4
 70
     0
  3
+++++++++++++++..+++++++++++++++
 72
    65
 73
     2
 40
80.0
 49
75.0
 74
     0
 49
-5.0
 74
     0
  0
LTYPE
  5
33
330
5
100
AcDbSymbolTableRecord
100
AcDbLinetypeTableRecord
  2
LONG5
 70
     0
  3
----------  --  ----------  --  
 72
    65
 73
     4
 40
60.0
 49
37.5
 74
     0
 49
-7.5
 74
     0
 49
7.5
 74
     0
 49
-7.5
 74
     0
  0
LTYPE
  5
34
330
5
100
AcDbSymbolTableRecord
100
AcDbLinetypeTableRecord
  2
dashed
 70
     0
  3
-------   -------------   ------
 72
    65
 73
     2
 40
7.5
 49
6.0
 74
     0
 49
-1.5
 74
     0
  0
LTYPE
  5
35
330
5
100
AcDbSymbolTableRecord
100
AcDbLinetypeTableRecord
  2
dashed_spaced
 70
     0
  3
----        --------        ----
 72
    65
 73
     2
 40
12.0
 49
6.0
 74
     0
 49
-6.0
 74
     0
  0
LTYPE
  5
36
330
5
100
AcDbSymbolTableRecord
100
AcDbLinetypeTableRecord
  2
long_dashed_dotted
 70
     0
  3
------------- --- --------------
 72
    65
 73
     4
 40
15.25
 49
12.0
 74
     0
 49
-1.5
 74
     0
 49
0.25
 74
     0
 49
-1.5
 74
     0
  0
LTYPE
  5
37
330
5
100
AcDbSymbolTableRecord
100
AcDbLinetypeTableRecord
  2
long_dashed_double-dotted
 70
     0
  3
----------- --- --- ------------
 72
    65
 73
     6
 40
17.0
 49
12.0
 74
     0
 49
-1.5
 74
     0
 49
0.25
 74
     0
 49
-1.5
 74
     0
 49
0.25
 74
     0
 49
-1.5
 74
     0
  0
LTYPE
  5
38
330
5
100
AcDbSymbolTableRecord
100
AcDbLinetypeTableRecord
  2
long_dashed_triplicate-dotted
 70
     0
  3
--------- --- --- --- ----------
 72
    65
 73
     8
 40
18.75
 49
12.0
 74
     0
 49
-1.5
 74
     0
 49
0.25
 74
     0
 49
-1.5
 74
     0
 49
0.25
 74
     0
 49
-1.5
 74
     0
 49
0.25
 74
     0
 49
-1.5
 74
     0
  0
LTYPE
  5
39
330
5
100
AcDbSymbolTableRecord
100
AcDbLinetypeTableRecord
  2
dotted
 70
     0
  3
   -       -       -       -    
 72
    65
 73
     2
 40
1.75
 49
0.25
 74
     0
 49
-1.5
 74
     0
  0
LTYPE
  5
3A
330
5
100
AcDbSymbolTableRecord
100
AcDbLinetypeTableRecord
  2
chain
 70
     0
  3
-------------- -- --------------
 72
    65
 73
     4
 40
18.5
 49
12.0
 74
     0
 49
-1.5
 74
     0
 49
3.5
 74
     0
 49
-1.5
 74
     0
  0
LTYPE
  5
3B
330
5
100
AcDbSymbolTableRecord
100
AcDbLinetypeTableRecord
  2
chain_double_dash
 70
     0
  3
------------ -- -- -------------
 72
    65
 73
     6
 40
23.5
 49
12.0
 74
     0
 49
-1.5
 74
     0
 49
3.5
 74
     0
 49
-1.5
 74
     0
 49
3.5
 74
     0
 49
-1.5
 74
     0
  0
LTYPE
  5
3C
330
5
100
AcDbSymbolTableRecord
100
AcDbLinetypeTableRecord
  2
dashed_dotted
 70
     0
  3
-----------     -     ----------
 72
    65
 73
     4
 40
9.25
 49
6.0
 74
     0
 49
-1.5
 74
     0
 49
0.25
 74
     0
 49
-1.5
 74
     0
  0
LTYPE
  5
3D
330
5
100
AcDbSymbolTableRecord
100
AcDbLinetypeTableRecord
  2
double-dashed_dotted
 70
     0
  3
------   -----------   -   -----
 72
    65
 73
     6
 40
16.75
 49
6.0
 74
     0
 49
-1.5
 74
     0
 49
6.0
 74
     0
 49
-1.5
 74
     0
 49
0.25
 74
     0
 49
-1.5
 74
     0
  0
LTYPE
  5
3E
330
5
100
AcDbSymbolTableRecord
100
AcDbLinetypeTableRecord
  2
dashed_double-dotted
 70
     0
  3
---------    -    -    ---------
 72
    65
 73
     6
 40
11.0
 49
6.0
 74
     0
 49
-1.5
 74
     0
 49
0.25
 74
     0
 49
-1.5
 74
     0
 49
0.25
 74
     0
 49
-1.5
 74
     0
  0
LTYPE
  5
3F
330
5
100
AcDbSymbolTableRecord
100
AcDbLinetypeTableRecord
  2
double-dashed_double-dotted
 70
     0
  3
-----   ---------   -   -   ----
 72
    65
 73
     8
 40
18.5
 49
6.0
 74
     0
 49
-1.5
 74
     0
 49
6.0
 74
     0
 49
-1.5
 74
     0
 49
0.25
 74
     0
 49
-1.5
 74
     0
 49
0.25
 74
     0
 49
-1.5
 74
     0
  0
LTYPE
  5
40
330
5
100
AcDbSymbolTableRecord
100
AcDbLinetypeTableRecord
  2
dashed_triplicate-dotted
 70
     0
  3
-------    -    -    -    ------
 72
    65
 73
     8
 40
12.75
 49
6.0
 74
     0
 49
-1.5
 74
     0
 49
0.25
 74
     0
 49
-1.5
 74
     0
 49
0.25
 74
     0
 49
-1.5
 74
     0
 49
0.25
 74
     0
 49
-1.5
 74
     0
  0
LTYPE
  5
41
330
5
100
AcDbSymbolTableRecord
100
AcDbLinetypeTableRecord
  2
double-dashed_triplicate-dotted
 70
     0
  3
-----  ---------  -  -  -  -----
 72
    65
 73
    10
 40
20.25
 49
6.0
 74
     0
 49
-1.5
 74
     0
 49
6.0
 74
     0
 49
-1.5
 74
     0
 49
0.25
 74
     0
 49
-1.5
 74
     0
 49
0.25
 74
     0
 49
-1.5
 74
     0
 49
0.25
 74
     0
 49
-1.5
 74
     0
  0
LTYPE
  5
42
330
5
100
AcDbSymbolTableRecord
100
AcDbLinetypeTableRecord
  2
undefined
 70
     0
  3
--------------------------------
 72
    65
 73
     0
 40
0.0
  0
LTYPE
  5
43
330
5
100
AcDbSymbolTableRecord
100
AcDbLinetypeTableRecord
  2
AI-Linetype-4
 70
     0
  3
----        --------        ----
 72
    65
 73
     2
 40
1.000002201219374
 49
0.5000011006096871
 74
     0
 49
-0.5000011006096871
 74
     0
  0
LTYPE
  5
44
330
5
100
AcDbSymbolTableRecord
100
AcDbLinetypeTableRecord
  2
繝_繧_繝_繧_繧_繝__24
 70
     0
  3
------     -----------     -----
 72
    65
 73
     2
 40
0.5905511811023623
 49
0.3937007874015748
 74
     0
 49
-0.1968503937007874
 74
     0
  0
LTYPE
  5
45
330
5
100
AcDbSymbolTableRecord
100
AcDbLinetypeTableRecord
  2
繝_繧_繝_繧_繧_繝__23
 70
     0
  3
----        --------        ----
 72
    65
 73
     2
 40
0.8332799999999998
 49
0.4165599999999999
 74
     0
 49
-0.41672
 74
     0
  0
LTYPE
  5
46
330
5
100
AcDbSymbolTableRecord
100
AcDbLinetypeTableRecord
  2
繝_繧_繝_繧_繧_繝__22
 70
     0
  3
----     -----     -----     ---
 72
    65
 73
     6
 40
1.450582677165354
 49
0.241763779527559
 74
     0
 49
-0.241763779527559
 74
     0
 49
0.241763779527559
 74
     0
 49
-0.241763779527559
 74
     0
 49
0.241763779527559
 74
     0
 49
-0.241763779527559
 74
     0
  0
LTYPE
  5
47
330
5
100
AcDbSymbolTableRecord
100
AcDbLinetypeTableRecord
  2
繝_繧_繝_繧_繧_繝__21
 70
     0
  3
----     -----     -----     ---
 72
    65
 73
     6
 40
1.308833858267716
 49
0.2181389763779527
 74
     0
 49
-0.2181389763779527
 74
     0
 49
0.2181389763779527
 74
     0
 49
-0.2181389763779527
 74
     0
 49
0.2181389763779527
 74
     0
 49
-0.2181389763779529
 74
     0
  0
LTYPE
  5
48
330
5
100
AcDbSymbolTableRecord
100
AcDbLinetypeTableRecord
  2
繝_繧_繝_繧_繧_繝__19
 70
     0
  3
--------------- - --------------
 72
    65
 73
     4
 40
10.29953002929687
 49
8.95599365234375
 74
     0
 49
-0.447845458984375
 74
     0
 49
0.447845458984375
 74
     0
 49
-0.447845458984375
 74
     0
  0
LTYPE
  5
49
330
5
100
AcDbSymbolTableRecord
100
AcDbLinetypeTableRecord
  2
繝_繧_繝_繧_繧_繝__18
 70
     0
  3
-----      ----------      -----
 72
    65
 73
     2
 40
1.527777777777777
 49
0.9722222222222221
 74
     0
 49
-0.5555555555555556
 74
     0
  0
LTYPE
  5
4A
330
5
100
AcDbSymbolTableRecord
100
AcDbLinetypeTableRecord
  2
繝_繧_繝_繧_繧_繝__17
 70
     0
  3
------     -----------     -----
 72
    65
 73
     2
 40
1.3433837890625
 49
0.895538330078125
 74
     0
 49
-0.447845458984375
 74
     0
  0
LTYPE
  5
4B
330
5
100
AcDbSymbolTableRecord
100
AcDbLinetypeTableRecord
  2
繝_繧_繝_繧_繧_繝__16
 70
     0
  3
-------- --------------- -------
 72
    65
 73
     2
 40
40.01
 49
40.0
 74
     0
 49
-0.01
 74
     0
  0
LTYPE
  5
4C
330
5
100
AcDbSymbolTableRecord
100
AcDbLinetypeTableRecord
  2
繝_繧_繝_繧_繧_繝__15
 70
     0
  3
--------    --    --    --------
 72
    65
 73
     6
 40
0.0644061102362205
 49
0.0322030551181102
 74
     0
 49
-0.0080508346456693
 74
     0
 49
0.0040252755905512
 74
     0
 49
-0.0080508346456693
 74
     0
 49
0.0040252755905512
 74
     0
 49
-0.0080508346456693
 74
     0
  0
LTYPE
  5
4D
330
5
100
AcDbSymbolTableRecord
100
AcDbLinetypeTableRecord
  2
繝_繧_繝_繧_繧_繝__14
 70
     0
  3
-----------   -   -   ----------
 72
    65
 73
     6
 40
0.0798610944881885
 49
0.0520833307086613
 74
     0
 49
-0.0069444409448818
 74
     0
 49
0.0034722204724409
 74
     0
 49
-0.0069444409448818
 74
     0
 49
0.0034722204724409
 74
     0
 49
-0.0069444409448818
 74
     0
  0
LTYPE
  5
4E
330
5
100
AcDbSymbolTableRecord
100
AcDbLinetypeTableRecord
  2
繝_繧_繝_繧_繧_繝__13
 70
     0
  3
-----------   -   -   ----------
 72
    65
 73
     6
 40
0.0638889055118109
 49
0.0416666692913386
 74
     0
 49
-0.0055555590551181
 74
     0
 49
0.002777779527559
 74
     0
 49
-0.0055555590551181
 74
     0
 49
0.002777779527559
 74
     0
 49
-0.0055555590551181
 74
     0
  0
LTYPE
  5
4F
330
5
100
AcDbSymbolTableRecord
100
AcDbLinetypeTableRecord
  2
繝_繧_繝_繧_繧_繝__12
 70
     0
  3
-----------  --  --  -----------
 72
    65
 73
     6
 40
0.0416666771653541
 49
0.0277777795275591
 74
     0
 49
-0.002777779527559
 74
     0
 49
0.002777779527559
 74
     0
 49
-0.002777779527559
 74
     0
 49
0.002777779527559
 74
     0
 49
-0.002777779527559
 74
     0
  0
LTYPE
  5
50
330
5
100
AcDbSymbolTableRecord
100
AcDbLinetypeTableRecord
  2
繝_繧_繝_繧_繧_繝__11
 70
     0
  3
--            ----            --
 72
    65
 73
     2
 40
0.1377952755905511
 49
0.0344488188976377
 74
     0
 49
-0.1033464566929134
 74
     0
  0
LTYPE
  5
51
330
5
100
AcDbSymbolTableRecord
100
AcDbLinetypeTableRecord
  2
繝_繧_繝_繧_繧_繝__10
 70
     0
  3
----------- ---- ---  ----------
 72
    65
 73
     6
 40
11.875
 49
7.5
 74
     0
 49
-0.5555699999999996
 74
     0
 49
1.388860000000001
 74
     0
 49
-0.5555699999999996
 74
     0
 49
1.25
 74
     0
 49
-0.625
 74
     0
  0
LTYPE
  5
52
330
5
100
AcDbSymbolTableRecord
100
AcDbLinetypeTableRecord
  2
繝_繧_繝_繧_繧_繝__9
 70
     0
  3
-----------   -----   ----------
 72
    65
 73
     4
 40
5.138888888888888
 49
3.333333333333333
 74
     0
 49
-0.5555555555555558
 74
     0
 49
0.8333333333333332
 74
     0
 49
-0.4166666666666663
 74
     0
  0
ENDTAB
  0
TABLE
  2
LAYER
  5
2
330
0
100
AcDbSymbolTable
 70
    20
  0
LAYER
  5
10
330
2
100
AcDbSymbolTableRecord
100
AcDbLayerTableRecord
  2
0
 70
     0
 62
     7
  6
CONTINUOUS
370
    -3
390
11
  0
LAYER
  5
55
330
2
100
AcDbSymbolTableRecord
100
AcDbLayerTableRecord
  2
_0-0_0
 70
     0
 62
     7
  6
CONTINUOUS
370
    -3
390
F
  0
LAYER
  5
56
330
2
100
AcDbSymbolTableRecord
100
AcDbLayerTableRecord
  2
_0-1_荳_闊_
 70
     0
 62
     7
  6
CONTINUOUS
370
    -3
390
F
  0
LAYER
  5
57
330
2
100
AcDbSymbolTableRecord
100
AcDbLayerTableRecord
  2
ADD_LINE
 70
     0
 62
     7
  6
CONTINUOUS
370
    -3
390
F
  0
LAYER
  5
3C8
330
2
100
AcDbSymbolTableRecord
100
AcDbLayerTableRecord
  2
_0-3_Defpoints
 70
     0
 62
     7
  6
CONTINUOUS
370
    -3
390
F
  0
LAYER
  5
3C9
330
2
100
AcDbSymbolTableRecord
100
AcDbLayerTableRecord
  2
_0-2_蟇_豕__ts
 70
     0
 62
     7
  6
CONTINUOUS
370
    -3
390
F
  0
LAYER
  5
3CA
330
2
100
AcDbSymbolTableRecord
100
AcDbLayerTableRecord
  2
_0-2_蟇_豕__
 70
     0
 62
     7
  6
CONTINUOUS
370
    -3
390
F
  0
LAYER
  5
3CB
330
2
100
AcDbSymbolTableRecord
100
AcDbLayerTableRecord
  2
_0-2_蟇_豕__3__100__AcDbSymbolTable___70_______1____0__STYLE____5__10__100__AcDbSymbolTableRecord_
 70
     0
 62
     7
  6
CONTINUOUS
370
    -3
390
F
  0
LAYER
  5
3CC
330
2
100
AcDbSymbolTableRecord
100
AcDbLayerTableRecord
  2
_0-2_蟇_豕__0_66668
 70
     0
 62
     7
  6
CONTINUOUS
370
    -3
390
F
  0
LAYER
  5
3CD
330
2
100
AcDbSymbolTableRecord
100
AcDbLayerTableRecord
  2
_0-2_蟇_豕__00000000000000000000000000000000000000000000000__310__000000OW穿0_
 70
     0
 62
     7
  6
CONTINUOUS
370
    -3
390
F
  0
LAYER
  5
3CE
330
2
100
AcDbSymbolTableRecord
100
AcDbLayerTableRecord
  2
_0-2_蟇_豕__000000000000000000000000000000000000000000000000000000000000_P
 70
     0
 62
     7
  6
CONTINUOUS
370
    -3
390
F
  0
LAYER
  5
3CF
330
2
100
AcDbSymbolTableRecord
100
AcDbLayerTableRecord
  2
_0-2_蟇_豕___1
 70
     0
 62
     7
  6
CONTINUOUS
370
    -3
390
F
  0
LAYER
  5
3D0
330
2
100
AcDbSymbolTableRecord
100
AcDbLayerTableRecord
  2
_0-2_蟇_豕__0000000000000000000000000000_W____
 70
     0
 62
     7
  6
CONTINUOUS
370
    -3
390
F
  0
LAYER
  5
3D1
330
2
100
AcDbSymbolTableRecord
100
AcDbLayerTableRecord
  2
_0-2_蟇_豕___00000000000_W____
 70
     0
 62
     7
  6
CONTINUOUS
370
    -3
390
F
  0
LAYER
  5
3D2
330
2
100
AcDbSymbolTableRecord
100
AcDbLayerTableRecord
  2
_0-2_蟇_豕__s_tuchishin-12_Desktop_北区茶屋町_IAO竹田
 70
     0
 62
     7
  6
CONTINUOUS
370
    -3
390
F
  0
LAYER
  5
3D3
330
2
100
AcDbSymbolTableRecord
100
AcDbLayerTableRecord
  2
_0-2_蟇_豕__2_Desktop_槇尾学園__
 70
     0
 62
     7
  6
CONTINUOUS
370
    -3
390
F
  0
LAYER
  5
3D4
330
2
100
AcDbSymbolTableRecord
100
AcDbLayerTableRecord
  2
_0-2_蟇_豕__000000000000_WZ___
 70
     0
 62
     7
  6
CONTINUOUS
370
    -3
390
F
  0
LAYER
  5
3D5
330
2
100
AcDbSymbolTableRecord
100
AcDbLayerTableRecord
  2
_0-2_蟇_豕__2
 70
     0
 62
     7
  6
CONTINUOUS
370
    -3
390
F
  0
LAYER
  5
3D6
330
2
100
AcDbSymbolTableRecord
100
AcDbLayerTableRecord
  2
_0-2_蟇_豕___i0_c128_p0_2020蟷_11譛・
 70
     0
 62
     7
  6
CONTINUOUS
370
    -3
390
F
  0
LAYER
  5
3D7
330
2
100
AcDbSymbolTableRecord
100
AcDbLayerTableRecord
  2
_0-2_蟇_豕__0___50__0_0___71_______0___42__1_0____3__txt____4__bigfont_shx____0__ENDTAB____0__EOF__
 70
     0
 62
     7
  6
CONTINUOUS
370
    -3
390
F
  0
ENDTAB
  0
TABLE
  2
STYLE
  5
3
330
0
100
AcDbSymbolTable
 70
     2
  0
STYLE
  5
12
330
3
100
AcDbSymbolTableRecord
100
AcDbTextStyleTableRecord
  2
STANDARD
 70
     0
 40
0.0
 41
1.0
 50
0.0
 71
     0
 42
0.2
  3
txt
  4
bigfont.shx
  0
STYLE
  5
54
330
3
100
AcDbSymbolTableRecord
100
AcDbTextStyleTableRecord
  2
TATEGAKI
 70
     4
 40
0.0
 41
1.0
 50
0.0
 71
     0
 42
1.0
  3
txt
  4
bigfont.shx
  0
ENDTAB
  0
TABLE
  2
VIEW
  5
6
330
0
100
AcDbSymbolTable
 70
     0
  0
ENDTAB
  0
TABLE
  2
UCS
  5
7
330
0
100
AcDbSymbolTable
 70
     0
  0
ENDTAB
  0
TABLE
  2
APPID
  5
9
330
0
100
AcDbSymbolTable
 70
     4
  0
APPID
  5
13
330
9
100
AcDbSymbolTableRecord
100
AcDbRegAppTableRecord
  2
ACAD
 70
     0
  0
APPID
  5
40F
330
9
100
AcDbSymbolTableRecord
100
AcDbRegAppTableRecord
  2
ACAD_MLEADERVER
 70
     0
  0
APPID
  5
410
330
9
100
AcDbSymbolTableRecord
100
AcDbRegAppTableRecord
  2
ACAD_PSEXT
 70
     0
  0
APPID
  5
492
330
9
100
AcDbSymbolTableRecord
100
AcDbRegAppTableRecord
  2
ACAD_NAV_VCDISPLAY
 70
     0
  0
ENDTAB
  0
TABLE
  2
DIMSTYLE
  5
A
330
0
100
AcDbSymbolTable
 70
     1
100
AcDbDimStyleTable
 71
     0
  0
DIMSTYLE
105
58
330
A
100
AcDbSymbolTableRecord
100
AcDbDimStyleTableRecord
  2
Standard
 70
     0
340
12
  0
ENDTAB
  0
TABLE
  2
BLOCK_RECORD
  5
1
330
0
100
AcDbSymbolTable
 70
    41
  0
BLOCK_RECORD
  5
1D
330
1
100
AcDbSymbolTableRecord
100
AcDbBlockTableRecord
  2
*Model_Space
340
1E
  0
BLOCK_RECORD
  5
1B
330
1
100
AcDbSymbolTableRecord
100
AcDbBlockTableRecord
  2
*Paper_Space
340
1C
  0
BLOCK_RECORD
  5
5A
330
1
100
AcDbSymbolTableRecord
100
AcDbBlockTableRecord
  2
-000-繧_繝_繝_繝__1
340
0
102
{BLKREFS
331
27B
102
}
  0
BLOCK_RECORD
  5
61
330
1
100
AcDbSymbolTableRecord
100
AcDbBlockTableRecord
  2
-001-VW_EMPTYBALL
340
0
102
{BLKREFS
331
16D
331
16E
331
179
331
17A
331
185
331
186
331
191
331
192
331
19D
331
19E
331
1A9
331
1AA
331
1B5
331
1B6
331
1C1
331
1C2
331
1CD
331
1CE
331
1D9
331
1DA
331
F5
331
F6
331
101
331
102
331
10D
331
10E
331
161
331
162
331
69
331
6A
331
75
331
76
331
81
331
82
331
8D
331
8E
331
9B
331
9C
331
A9
331
AA
331
B5
331
B6
331
C3
331
C4
331
D1
331
D2
331
DD
331
DE
331
E9
331
EA
102
}
  0
BLOCK_RECORD
  5
65
330
1
100
AcDbSymbolTableRecord
100
AcDbBlockTableRecord
  2
-002-_D2
340
0
102
{BLKREFS
331
298
102
}
  0
BLOCK_RECORD
  5
71
330
1
100
AcDbSymbolTableRecord
100
AcDbBlockTableRecord
  2
-003-_D3
340
0
102
{BLKREFS
331
299
102
}
  0
BLOCK_RECORD
  5
7D
330
1
100
AcDbSymbolTableRecord
100
AcDbBlockTableRecord
  2
-004-_D4
340
0
102
{BLKREFS
331
29A
102
}
  0
BLOCK_RECORD
  5
89
330
1
100
AcDbSymbolTableRecord
100
AcDbBlockTableRecord
  2
-005-_D5
340
0
102
{BLKREFS
331
2AE
102
}
  0
BLOCK_RECORD
  5
95
330
1
100
AcDbSymbolTableRecord
100
AcDbBlockTableRecord
  2
-006-_D6
340
0
102
{BLKREFS
331
2B7
102
}
  0
BLOCK_RECORD
  5
A3
330
1
100
AcDbSymbolTableRecord
100
AcDbBlockTableRecord
  2
-007-_D7
340
0
102
{BLKREFS
331
2B8
102
}
  0
BLOCK_RECORD
  5
B1
330
1
100
AcDbSymbolTableRecord
100
AcDbBlockTableRecord
  2
-008-_D8
340
0
102
{BLKREFS
331
2B9
102
}
  0
BLOCK_RECORD
  5
BD
330
1
100
AcDbSymbolTableRecord
100
AcDbBlockTableRecord
  2
-009-_D9
340
0
102
{BLKREFS
331
2BA
102
}
  0
BLOCK_RECORD
  5
CB
330
1
100
AcDbSymbolTableRecord
100
AcDbBlockTableRecord
  2
-010-_D10
340
0
102
{BLKREFS
331
2BB
102
}
  0
BLOCK_RECORD
  5
D9
330
1
100
AcDbSymbolTableRecord
100
AcDbBlockTableRecord
  2
-011-_D11
340
0
102
{BLKREFS
331
2BC
102
}
  0
BLOCK_RECORD
  5
E5
330
1
100
AcDbSymbolTableRecord
100
AcDbBlockTableRecord
  2
-012-_D12
340
0
102
{BLKREFS
331
2BD
102
}
  0
BLOCK_RECORD
  5
F1
330
1
100
AcDbSymbolTableRecord
100
AcDbBlockTableRecord
  2
-013-_D13
340
0
102
{BLKREFS
331
2BE
102
}
  0
BLOCK_RECORD
  5
FD
330
1
100
AcDbSymbolTableRecord
100
AcDbBlockTableRecord
  2
-014-_D14
340
0
102
{BLKREFS
331
2BF
102
}
  0
BLOCK_RECORD
  5
109
330
1
100
AcDbSymbolTableRecord
100
AcDbBlockTableRecord
  2
-015-_D15
340
0
102
{BLKREFS
331
2C0
102
}
  0
BLOCK_RECORD
  5
115
330
1
100
AcDbSymbolTableRecord
100
AcDbBlockTableRecord
  2
-016-繧_繝_繝_繝__2-1
340
0
102
{BLKREFS
331
2C9
102
}
  0
BLOCK_RECORD
  5
139
330
1
100
AcDbSymbolTableRecord
100
AcDbBlockTableRecord
  2
-017-繧_繝_繝_繝__3-1
340
0
102
{BLKREFS
331
2CC
102
}
  0
BLOCK_RECORD
  5
15D
330
1
100
AcDbSymbolTableRecord
100
AcDbBlockTableRecord
  2
-018-_D18
340
0
102
{BLKREFS
331
2CD
102
}
  0
BLOCK_RECORD
  5
169
330
1
100
AcDbSymbolTableRecord
100
AcDbBlockTableRecord
  2
-019-_D19
340
0
102
{BLKREFS
331
2CE
102
}
  0
BLOCK_RECORD
  5
175
330
1
100
AcDbSymbolTableRecord
100
AcDbBlockTableRecord
  2
-020-_D20
340
0
102
{BLKREFS
331
2CF
102
}
  0
BLOCK_RECORD
  5
181
330
1
100
AcDbSymbolTableRecord
100
AcDbBlockTableRecord
  2
-021-_D21
340
0
102
{BLKREFS
331
2D0
102
}
  0
BLOCK_RECORD
  5
18D
330
1
100
AcDbSymbolTableRecord
100
AcDbBlockTableRecord
  2
-022-_D22
340
0
102
{BLKREFS
331
306
102
}
  0
BLOCK_RECORD
  5
199
330
1
100
AcDbSymbolTableRecord
100
AcDbBlockTableRecord
  2
-023-_D23
340
0
102
{BLKREFS
331
307
102
}
  0
BLOCK_RECORD
  5
1A5
330
1
100
AcDbSymbolTableRecord
100
AcDbBlockTableRecord
  2
-024-_D24
340
0
102
{BLKREFS
331
308
102
}
  0
BLOCK_RECORD
  5
1B1
330
1
100
AcDbSymbolTableRecord
100
AcDbBlockTableRecord
  2
-025-_D25
340
0
102
{BLKREFS
331
30A
102
}
  0
BLOCK_RECORD
  5
1BD
330
1
100
AcDbSymbolTableRecord
100
AcDbBlockTableRecord
  2
-026-_D26
340
0
102
{BLKREFS
331
30B
102
}
  0
BLOCK_RECORD
  5
1C9
330
1
100
AcDbSymbolTableRecord
100
AcDbBlockTableRecord
  2
-027-_D27
340
0
102
{BLKREFS
331
30C
102
}
  0
BLOCK_RECORD
  5
1D5
330
1
100
AcDbSymbolTableRecord
100
AcDbBlockTableRecord
  2
-028-_D28
340
0
102
{BLKREFS
331
30D
102
}
  0
BLOCK_RECORD
  5
1E1
330
1
100
AcDbSymbolTableRecord
100
AcDbBlockTableRecord
  2
-029-繧_繝_繝_繝__6-1
340
0
102
{BLKREFS
331
352
102
}
  0
BLOCK_RECORD
  5
1E8
330
1
100
AcDbSymbolTableRecord
100
AcDbBlockTableRecord
  2
-030-繧_繝_繝_繝__7-1
340
0
102
{BLKREFS
331
353
102
}
  0
BLOCK_RECORD
  5
1EF
330
1
100
AcDbSymbolTableRecord
100
AcDbBlockTableRecord
  2
-031-繧_繝_繝_繝__8-1
340
0
102
{BLKREFS
331
354
102
}
  0
BLOCK_RECORD
  5
1F6
330
1
100
AcDbSymbolTableRecord
100
AcDbBlockTableRecord
  2
-032-繧_繝_繝_繝__10-1
340
0
102
{BLKREFS
331
365
102
}
  0
BLOCK_RECORD
  5
202
330
1
100
AcDbSymbolTableRecord
100
AcDbBlockTableRecord
  2
-033-繧_繝_繝_繝__11-1
340
0
102
{BLKREFS
331
366
102
}
  0
BLOCK_RECORD
  5
20E
330
1
100
AcDbSymbolTableRecord
100
AcDbBlockTableRecord
  2
-034-繧_繝_繝_繝__12-1
340
0
102
{BLKREFS
331
367
102
}
  0
BLOCK_RECORD
  5
21A
330
1
100
AcDbSymbolTableRecord
100
AcDbBlockTableRecord
  2
-035-繧_繝_繝_繝__13-1
340
0
102
{BLKREFS
331
368
102
}
  0
BLOCK_RECORD
  5
226
330
1
100
AcDbSymbolTableRecord
100
AcDbBlockTableRecord
  2
-036-繧_繝_繝_繝__14-1
340
0
102
{BLKREFS
331
394
102
}
  0
BLOCK_RECORD
  5
236
330
1
100
AcDbSymbolTableRecord
100
AcDbBlockTableRecord
  2
-037-繧_繝_繝_繝__15-1
340
0
102
{BLKREFS
331
262
102
}
  0
BLOCK_RECORD
  5
249
330
1
100
AcDbSymbolTableRecord
100
AcDbBlockTableRecord
  2
-038-繧_繝_繝_繝__16-1
340
0
102
{BLKREFS
331
395
102
}
  0
BLOCK_RECORD
  5
265
330
1
100
AcDbSymbolTableRecord
100
AcDbBlockTableRecord
  2
-039-繧_繝_繝_繝__17-1
340
0
102
{BLKREFS
331
3A9
102
}
  0
BLOCK_RECORD
  5
26C
330
1
100
AcDbSymbolTableRecord
100
AcDbBlockTableRecord
  2
-040-繧_繝_繝_繝__5-1
340
0
102
{BLKREFS
331
31F
102
}
  0
ENDTAB
  0
ENDSEC
  0
SECTION
  2
BLOCKS
  0
BLOCK
  5
3EC
330
1D
100
AcDbEntity
  8
0
100
AcDbBlockBegin
  2
*Model_Space
 70
     0
 10
0.0
 20
0.0
 30
0.0
  3
*Model_Space
  1
Acad:XRef
  0
ENDBLK
  5
3ED
330
1D
100
AcDbEntity
  8
0
100
AcDbBlockEnd
  0
BLOCK
  5
3EA
330
1B
100
AcDbEntity
 67
     1
  8
0
100
AcDbBlockBegin
  2
*Paper_Space
 70
     0
 10
0.0
 20
0.0
 30
0.0
  3
*Paper_Space
  1
Acad:XRef
  0
ENDBLK
  5
3EB
330
1B
100
AcDbEntity
 67
     1
  8
0
100
AcDbBlockEnd
  0
BLOCK
  5
59
330
5A
100
AcDbEntity
  8
0
100
AcDbBlockBegin
  2
-000-繧_繝_繝_繝__1
 70
     0
 10
0.0
 20
0.0
 30
0.0
  3
-000-繧_繝_繝_繝__1
  1

  0
LINE
  5
5B
330
5A
100
AcDbEntity
  8
_0-1_荳_闊_
  6
Continuous
 62
     7
100
AcDbLine
 10
-669.4864542356551
 20
1255.254709996676
 30
0.0
 11
-609.4864542356552
 21
1255.254709996676
 31
0.0
  0
LINE
  5
5C
330
5A
100
AcDbEntity
  8
_0-1_荳_闊_
  6
Continuous
 62
     7
100
AcDbLine
 10
-609.4864542356552
 20
1255.254709996676
 30
0.0
 11
-609.4864542356552
 21
755.2547099966757
 31
0.0
  0
LINE
  5
5D
330
5A
100
AcDbEntity
  8
_0-1_荳_闊_
  6
Continuous
 62
     7
100
AcDbLine
 10
-609.4864542356552
 20
755.2547099966757
 30
0.0
 11
-669.4864542356551
 21
755.2547099966757
 31
0.0
  0
LINE
  5
5E
330
5A
100
AcDbEntity
  8
_0-1_荳_闊_
  6
Continuous
 62
     7
100
AcDbLine
 10
-669.4864542356551
 20
755.2547099966757
 30
0.0
 11
-669.4864542356551
 21
1255.254709996676
 31
0.0
  0
ENDBLK
  5
5F
330
5A
100
AcDbEntity
  8
0
100
AcDbBlockEnd
  0
BLOCK
  5
60
330
61
100
AcDbEntity
  8
0
100
AcDbBlockBegin
  2
-001-VW_EMPTYBALL
 70
     0
 10
0.0
 20
0.0
 30
0.0
  3
-001-VW_EMPTYBALL
  1

  0
CIRCLE
  5
62
330
61
100
AcDbEntity
  8
_0-0_0
  6
Continuous
 62
     7
100
AcDbCircle
 10
0.4999999999999999
 20
0.4999999999999999
 30
0.0
 40
0.4999999999999999
  0
ENDBLK
  5
63
330
61
100
AcDbEntity
  8
0
100
AcDbBlockEnd
  0
BLOCK
  5
64
330
65
100
AcDbEntity
  8
0
100
AcDbBlockBegin
  2
-002-_D2
 70
     0
 10
0.0
 20
0.0
 30
0.0
  3
-002-_D2
  1

  0
LINE
  5
66
330
65
100
AcDbEntity
  8
_0-2_蟇_豕__0___50__0_0___71_______0___42__1_0____3__txt____4__bigfont_shx____0__ENDTAB____0__EOF__
  6
Continuous
 62
     7
100
AcDbLine
 10
323.3618290201455
 20
-237.8986310873728
 30
0.0
 11
452.0
 21
-237.8986310873728
 31
0.0
  0
LINE
  5
67
330
65
100
AcDbEntity
  8
_0-2_蟇_豕__0_66668
  6
Continuous
 62
     7
100
AcDbLine
 10
282.2677585547638
 20
87.10136891262733
 30
0.0
 11
452.0
 21
87.10136891262733
 31
0.0
  0
LINE
  5
68
330
65
100
AcDbEntity
  8
_0-2_蟇_豕___i0_c128_p0_2020蟷_11譛・
  6
Continuous
 62
     7
100
AcDbLine
 10
442.0
 20
-231.8989972983103
 30
0.0
 11
442.0
 21
81.10173512356482
 31
0.0
  0
INSERT
  5
69
330
65
100
AcDbEntity
  8
_0-2_蟇_豕__0_66668
100
AcDbBlockReference
  2
-001-VW_EMPTYBALL
 10
442.0
 20
-237.8986310873728
 30
0.0
 41
5.9996337890625
 42
5.9996337890625
 50
270.0
  0
INSERT
  5
6A
330
65
100
AcDbEntity
  8
_0-2_蟇_豕__2
100
AcDbBlockReference
  2
-001-VW_EMPTYBALL
 10
442.0
 20
87.10136891262733
 30
0.0
 41
5.9996337890625
 42
5.9996337890625
 50
90.0
  0
TEXT
  5
6B
330
65
100
AcDbEntity
  8
_0-2_蟇_豕__000000000000_WZ___
 62
     7
100
AcDbText
 10
437.0
 20
-92.14179514987273
 30
0.0
 40
22.32421875
  1
325
 50
90.0
100
AcDbText
  0
POINT
  5
6C
330
65
100
AcDbEntity
  8
_0-3_Defpoints
 62
     7
100
AcDbPoint
 10
313.3618290201455
 20
-237.8986310873728
 30
0.0
  0
POINT
  5
6D
330
65
100
AcDbEntity
  8
_0-3_Defpoints
 62
     7
100
AcDbPoint
 10
272.2677585547638
 20
87.10136891262733
 30
0.0
  0
POINT
  5
6E
330
65
100
AcDbEntity
  8
_0-3_Defpoints
 62
     7
100
AcDbPoint
 10
442.0
 20
87.10136891262733
 30
0.0
  0
ENDBLK
  5
6F
330
65
100
AcDbEntity
  8
0
100
AcDbBlockEnd
  0
BLOCK
  5
70
330
71
100
AcDbEntity
  8
0
100
AcDbBlockBegin
  2
-003-_D3
 70
     0
 10
0.0
 20
0.0
 30
0.0
  3
-003-_D3
  1

  0
LINE
  5
72
330
71
100
AcDbEntity
  8
_0-2_蟇_豕__ts
  6
Continuous
 62
     7
100
AcDbLine
 10
362.2925782100552
 20
-657.8986473449315
 30
0.0
 11
452.0
 21
-657.8986473449315
 31
0.0
  0
LINE
  5
73
330
71
100
AcDbEntity
  8
_0-2_蟇_豕__000000000000000000000000000000000000000000000000000000000000_P
  6
Continuous
 62
     7
100
AcDbLine
 10
323.3618290201455
 20
-237.8986310873728
 30
0.0
 11
452.0
 21
-237.8986310873728
 31
0.0
  0
LINE
  5
74
330
71
100
AcDbEntity
  8
_0-2_蟇_豕__2_Desktop_槇尾学園__
  6
Continuous
 62
     7
100
AcDbLine
 10
442.0
 20
-651.899013555869
 30
0.0
 11
442.0
 21
-243.8982648764353
 31
0.0
  0
INSERT
  5
75
330
71
100
AcDbEntity
  8
_0-2_蟇_豕__0000000000000000000000000000_W____
100
AcDbBlockReference
  2
-001-VW_EMPTYBALL
 10
442.0
 20
-657.8986473449315
 30
0.0
 41
5.9996337890625
 42
5.9996337890625
 50
270.0
  0
INSERT
  5
76
330
71
100
AcDbEntity
  8
_0-2_蟇_豕__s_tuchishin-12_Desktop_北区茶屋町_IAO竹田
100
AcDbBlockReference
  2
-001-VW_EMPTYBALL
 10
442.0
 20
-237.8986310873728
 30
0.0
 41
5.9996337890625
 42
5.9996337890625
 50
90.0
  0
TEXT
  5
77
330
71
100
AcDbEntity
  8
_0-2_蟇_豕__
 62
     7
100
AcDbText
 10
437.0
 20
-464.6418032786522
 30
0.0
 40
22.32421875
  1
420
 50
90.0
100
AcDbText
  0
POINT
  5
78
330
71
100
AcDbEntity
  8
_0-3_Defpoints
 62
     7
100
AcDbPoint
 10
352.2925782100552
 20
-657.8986473449315
 30
0.0
  0
POINT
  5
79
330
71
100
AcDbEntity
  8
_0-3_Defpoints
 62
     7
100
AcDbPoint
 10
313.3618290201455
 20
-237.8986310873728
 30
0.0
  0
POINT
  5
7A
330
71
100
AcDbEntity
  8
_0-3_Defpoints
 62
     7
100
AcDbPoint
 10
442.0
 20
-237.8986310873728
 30
0.0
  0
ENDBLK
  5
7B
330
71
100
AcDbEntity
  8
0
100
AcDbBlockEnd
  0
BLOCK
  5
7C
330
7D
100
AcDbEntity
  8
0
100
AcDbBlockBegin
  2
-004-_D4
 70
     0
 10
0.0
 20
0.0
 30
0.0
  3
-004-_D4
  1

  0
LINE
  5
7E
330
7D
100
AcDbEntity
  8
_0-2_蟇_豕__ts
  6
Continuous
 62
     7
100
AcDbLine
 10
316.2677585547638
 20
-657.8986473449315
 30
0.0
 11
550.0
 21
-657.8986473449315
 31
0.0
  0
LINE
  5
7F
330
7D
100
AcDbEntity
  8
_0-2_蟇_豕__ts
  6
Continuous
 62
     7
100
AcDbLine
 10
282.2677585547638
 20
87.10136891262733
 30
0.0
 11
550.0
 21
87.10136891262733
 31
0.0
  0
LINE
  5
80
330
7D
100
AcDbEntity
  8
_0-2_蟇_豕__ts
  6
Continuous
 62
     7
100
AcDbLine
 10
540.0
 20
-651.899013555869
 30
0.0
 11
540.0
 21
81.10173512356482
 31
0.0
  0
INSERT
  5
81
330
7D
100
AcDbEntity
  8
_0-2_蟇_豕__ts
100
AcDbBlockReference
  2
-001-VW_EMPTYBALL
 10
540.0
 20
-657.8986473449315
 30
0.0
 41
5.9996337890625
 42
5.9996337890625
 50
270.0
  0
INSERT
  5
82
330
7D
100
AcDbEntity
  8
_0-2_蟇_豕__ts
100
AcDbBlockReference
  2
-001-VW_EMPTYBALL
 10
540.0
 20
87.10136891262733
 30
0.0
 41
5.9996337890625
 42
5.9996337890625
 50
90.0
  0
TEXT
  5
83
330
7D
100
AcDbEntity
  8
_0-2_蟇_豕__ts
 62
     7
100
AcDbText
 10
535.0
 20
-302.1418032786521
 30
0.0
 40
22.32421875
  1
745
 50
90.0
100
AcDbText
  0
POINT
  5
84
330
7D
100
AcDbEntity
  8
_0-3_Defpoints
 62
     7
100
AcDbPoint
 10
306.2677585547638
 20
-657.8986473449315
 30
0.0
  0
POINT
  5
85
330
7D
100
AcDbEntity
  8
_0-3_Defpoints
 62
     7
100
AcDbPoint
 10
272.2677585547638
 20
87.10136891262733
 30
0.0
  0
POINT
  5
86
330
7D
100
AcDbEntity
  8
_0-3_Defpoints
 62
     7
100
AcDbPoint
 10
540.0
 20
87.10136891262733
 30
0.0
  0
ENDBLK
  5
87
330
7D
100
AcDbEntity
  8
0
100
AcDbBlockEnd
  0
BLOCK
  5
88
330
89
100
AcDbEntity
  8
0
100
AcDbBlockBegin
  2
-005-_D5
 70
     0
 10
0.0
 20
0.0
 30
0.0
  3
-005-_D5
  1

  0
LINE
  5
8A
330
89
100
AcDbEntity
  8
_0-2_蟇_豕__ts
  6
Continuous
 62
     7
100
AcDbLine
 10
272.2677585547638
 20
92.10136891262719
 30
0.0
 11
272.2677585547638
 21
281.9733013633
 31
0.0
  0
LINE
  5
8B
330
89
100
AcDbEntity
  8
_0-2_蟇_豕__0_66668
  6
Continuous
 62
     7
100
AcDbLine
 10
-1547.72650832385
 20
92.10136891262719
 30
0.0
 11
-1547.72650832385
 21
281.9733013633
 31
0.0
  0
LINE
  5
8C
330
89
100
AcDbEntity
  8
_0-2_蟇_豕__ts
  6
Continuous
 62
     7
100
AcDbLine
 10
266.2681247657013
 20
271.9733013633
 30
0.0
 11
-1541.726874534787
 21
271.9733013633
 31
0.0
  0
INSERT
  5
8D
330
89
100
AcDbEntity
  8
_0-2_蟇_豕__ts
100
AcDbBlockReference
  2
-001-VW_EMPTYBALL
 10
272.2677585547638
 20
271.9733013633
 30
0.0
 41
5.9996337890625
 42
5.9996337890625
  0
INSERT
  5
8E
330
89
100
AcDbEntity
  8
_0-2_蟇_豕__s_tuchishin-12_Desktop_北区茶屋町_IAO竹田
100
AcDbBlockReference
  2
-001-VW_EMPTYBALL
 10
-1547.72650832385
 20
271.9733013633
 30
0.0
 41
5.9996337890625
 42
5.9996337890625
 50
180.0
  0
TEXT
  5
8F
330
89
100
AcDbEntity
  8
_0-2_蟇_豕__ts
 62
     7
100
AcDbText
 10
-660.053593634543
 20
276.9733013633
 30
0.0
 40
22.32421875
  1
1820
100
AcDbText
  0
POINT
  5
90
330
89
100
AcDbEntity
  8
_0-3_Defpoints
 62
     7
100
AcDbPoint
 10
272.2677585547638
 20
82.10136891262719
 30
0.0
  0
POINT
  5
91
330
89
100
AcDbEntity
  8
_0-3_Defpoints
 62
     7
100
AcDbPoint
 10
-1547.72650832385
 20
82.10136891262719
 30
0.0
  0
POINT
  5
92
330
89
100
AcDbEntity
  8
_0-3_Defpoints
 62
     7
100
AcDbPoint
 10
-1547.72650832385
 20
271.9733013633
 30
0.0
  0
ENDBLK
  5
93
330
89
100
AcDbEntity
  8
0
100
AcDbBlockEnd
  0
BLOCK
  5
94
330
95
100
AcDbEntity
  8
0
100
AcDbBlockBegin
  2
-006-_D6
 70
     0
 10
0.0
 20
0.0
 30
0.0
  3
-006-_D6
  1

  0
LINE
  5
96
330
95
100
AcDbEntity
  8
_0-2_蟇_豕___00000000000_W____
  6
Continuous
 62
     7
100
AcDbLine
 10
-1541.72650832385
 20
92.10136891262719
 30
0.0
 11
-1541.72650832385
 21
212.9733013633
 31
0.0
  0
LINE
  5
97
330
95
100
AcDbEntity
  8
_0-2_蟇_豕__0000000000000000000000000000_W____
  6
Continuous
 62
     7
100
AcDbLine
 10
-1547.72650832385
 20
92.10136891262719
 30
0.0
 11
-1547.72650832385
 21
212.9733013633
 31
0.0
  0
LINE
  5
98
330
95
100
AcDbEntity
  8
_0-2_蟇_豕___1
  6
Continuous
 62
     7
100
AcDbLine
 10
-1541.72650832385
 20
202.9733013633
 30
0.0
 11
-1547.72650832385
 21
202.9733013633
 31
0.0
  0
LINE
  5
99
330
95
100
AcDbEntity
  8
_0-2_蟇_豕__ts
  6
Continuous
 62
     7
100
AcDbLine
 10
-1535.726874534787
 20
202.9733013633
 30
0.0
 11
-1529.727240745725
 21
202.9733013633
 31
0.0
  0
LINE
  5
9A
330
95
100
AcDbEntity
  8
_0-2_蟇_豕__ts
  6
Continuous
 62
     7
100
AcDbLine
 10
-1553.726142112912
 20
202.9733013633
 30
0.0
 11
-1559.725775901975
 21
202.9733013633
 31
0.0
  0
INSERT
  5
9B
330
95
100
AcDbEntity
  8
_0-2_蟇_豕__ts
100
AcDbBlockReference
  2
-001-VW_EMPTYBALL
 10
-1541.72650832385
 20
202.9733013633
 30
0.0
 41
5.9996337890625
 42
5.9996337890625
 50
180.0
  0
INSERT
  5
9C
330
95
100
AcDbEntity
  8
_0-2_蟇_豕__
100
AcDbBlockReference
  2
-001-VW_EMPTYBALL
 10
-1547.72650832385
 20
202.9733013633
 30
0.0
 41
5.9996337890625
 42
5.9996337890625
  0
TEXT
  5
9D
330
95
100
AcDbEntity
  8
_0-2_蟇_豕__
 62
     7
100
AcDbText
 10
-1563.984807610192
 20
215.3849419883
 30
0.0
 40
22.32421875
  1
6
100
AcDbText
  0
POINT
  5
9E
330
95
100
AcDbEntity
  8
_0-3_Defpoints
 62
     7
100
AcDbPoint
 10
-1541.72650832385
 20
82.10136891262719
 30
0.0
  0
POINT
  5
9F
330
95
100
AcDbEntity
  8
_0-3_Defpoints
 62
     7
100
AcDbPoint
 10
-1547.72650832385
 20
82.10136891262719
 30
0.0
  0
POINT
  5
A0
330
95
100
AcDbEntity
  8
_0-3_Defpoints
 62
     7
100
AcDbPoint
 10
-1547.72650832385
 20
202.9733013633
 30
0.0
  0
ENDBLK
  5
A1
330
95
100
AcDbEntity
  8
0
100
AcDbBlockEnd
  0
BLOCK
  5
A2
330
A3
100
AcDbEntity
  8
0
100
AcDbBlockBegin
  2
-007-_D7
 70
     0
 10
0.0
 20
0.0
 30
0.0
  3
-007-_D7
  1

  0
LINE
  5
A4
330
A3
100
AcDbEntity
  8
_0-2_蟇_豕__ts
  6
Continuous
 62
     7
100
AcDbLine
 10
-1537.732241445236
 20
92.01028813988214
 30
0.0
 11
-1537.732241445236
 21
212.9733013633
 31
0.0
  0
LINE
  5
A5
330
A3
100
AcDbEntity
  8
_0-2_蟇_豕__ts
  6
Continuous
 62
     7
100
AcDbLine
 10
-1541.72650832385
 20
92.10136891262719
 30
0.0
 11
-1541.72650832385
 21
212.9733013633
 31
0.0
  0
LINE
  5
A6
330
A3
100
AcDbEntity
  8
_0-2_蟇_豕__ts
  6
Continuous
 62
     7
100
AcDbLine
 10
-1537.732241445236
 20
202.9733013633
 30
0.0
 11
-1541.72650832385
 21
202.9733013633
 31
0.0
  0
LINE
  5
A7
330
A3
100
AcDbEntity
  8
_0-2_蟇_豕__
  6
Continuous
 62
     7
100
AcDbLine
 10
-1531.732607656174
 20
202.9733013633
 30
0.0
 11
-1525.732973867111
 21
202.9733013633
 31
0.0
  0
LINE
  5
A8
330
A3
100
AcDbEntity
  8
_0-2_蟇_豕__ts
  6
Continuous
 62
     7
100
AcDbLine
 10
-1547.726142112912
 20
202.9733013633
 30
0.0
 11
-1553.725775901975
 21
202.9733013633
 31
0.0
  0
INSERT
  5
A9
330
A3
100
AcDbEntity
  8
_0-2_蟇_豕__000000000000000000000000000000000000000000000000000000000000_P
100
AcDbBlockReference
  2
-001-VW_EMPTYBALL
 10
-1537.732241445236
 20
202.9733013633
 30
0.0
 41
5.9996337890625
 42
5.9996337890625
 50
180.0
  0
INSERT
  5
AA
330
A3
100
AcDbEntity
  8
_0-2_蟇_豕__00000000000000000000000000000000000000000000000__310__000000OW穿0_
100
AcDbBlockReference
  2
-001-VW_EMPTYBALL
 10
-1541.72650832385
 20
202.9733013633
 30
0.0
 41
5.9996337890625
 42
5.9996337890625
  0
TEXT
  5
AB
330
A3
100
AcDbEntity
  8
_0-2_蟇_豕__
 62
     7
100
AcDbText
 10
-1533.716982656074
 20
215.3849419883
 30
0.0
 40
22.32421875
  1
4
100
AcDbText
  0
POINT
  5
AC
330
A3
100
AcDbEntity
  8
_0-3_Defpoints
 62
     7
100
AcDbPoint
 10
-1537.732241445236
 20
82.01028813988214
 30
0.0
  0
POINT
  5
AD
330
A3
100
AcDbEntity
  8
_0-3_Defpoints
 62
     7
100
AcDbPoint
 10
-1541.72650832385
 20
82.10136891262719
 30
0.0
  0
POINT
  5
AE
330
A3
100
AcDbEntity
  8
_0-3_Defpoints
 62
     7
100
AcDbPoint
 10
-1541.72650832385
 20
202.9733013633
 30
0.0
  0
ENDBLK
  5
AF
330
A3
100
AcDbEntity
  8
0
100
AcDbBlockEnd
  0
BLOCK
  5
B0
330
B1
100
AcDbEntity
  8
0
100
AcDbBlockBegin
  2
-008-_D8
 70
     0
 10
0.0
 20
0.0
 30
0.0
  3
-008-_D8
  1

  0
LINE
  5
B2
330
B1
100
AcDbEntity
  8
_0-2_蟇_豕__ts
  6
Continuous
 62
     7
100
AcDbLine
 10
262.2734916761498
 20
92.01028813988214
 30
0.0
 11
262.2734916761499
 21
212.9733013633
 31
0.0
  0
LINE
  5
B3
330
B1
100
AcDbEntity
  8
_0-2_蟇_豕__ts
  6
Continuous
 62
     7
100
AcDbLine
 10
-1537.732241445236
 20
92.01028813988214
 30
0.0
 11
-1537.732241445236
 21
212.9733013633
 31
0.0
  0
LINE
  5
B4
330
B1
100
AcDbEntity
  8
_0-2_蟇_豕__ts
  6
Continuous
 62
     7
100
AcDbLine
 10
256.2738578870874
 20
202.9733013633
 30
0.0
 11
-1531.732607656174
 21
202.9733013633
 31
0.0
  0
INSERT
  5
B5
330
B1
100
AcDbEntity
  8
_0-2_蟇_豕__ts
100
AcDbBlockReference
  2
-001-VW_EMPTYBALL
 10
262.2734916761499
 20
202.9733013633
 30
0.0
 41
5.9996337890625
 42
5.9996337890625
  0
INSERT
  5
B6
330
B1
100
AcDbEntity
  8
_0-2_蟇_豕__
100
AcDbBlockReference
  2
-001-VW_EMPTYBALL
 10
-1537.732241445236
 20
202.9733013633
 30
0.0
 41
5.9996337890625
 42
5.9996337890625
 50
180.0
  0
TEXT
  5
B7
330
B1
100
AcDbEntity
  8
_0-2_蟇_豕__ts
 62
     7
100
AcDbText
 10
-660.0535936345432
 20
207.9733013633
 30
0.0
 40
22.32421875
  1
1800
100
AcDbText
  0
POINT
  5
B8
330
B1
100
AcDbEntity
  8
_0-3_Defpoints
 62
     7
100
AcDbPoint
 10
262.2734916761498
 20
82.01028813988214
 30
0.0
  0
POINT
  5
B9
330
B1
100
AcDbEntity
  8
_0-3_Defpoints
 62
     7
100
AcDbPoint
 10
-1537.732241445236
 20
82.01028813988214
 30
0.0
  0
POINT
  5
BA
330
B1
100
AcDbEntity
  8
_0-3_Defpoints
 62
     7
100
AcDbPoint
 10
-1537.732241445236
 20
202.9733013633
 30
0.0
  0
ENDBLK
  5
BB
330
B1
100
AcDbEntity
  8
0
100
AcDbBlockEnd
  0
BLOCK
  5
BC
330
BD
100
AcDbEntity
  8
0
100
AcDbBlockBegin
  2
-009-_D9
 70
     0
 10
0.0
 20
0.0
 30
0.0
  3
-009-_D9
  1

  0
LINE
  5
BE
330
BD
100
AcDbEntity
  8
_0-2_蟇_豕__0_66668
  6
Continuous
 62
     7
100
AcDbLine
 10
266.2677585547638
 20
97.10136891262733
 30
0.0
 11
266.2677585547638
 21
212.9733013633
 31
0.0
  0
LINE
  5
BF
330
BD
100
AcDbEntity
  8
_0-2_蟇_豕__ts
  6
Continuous
 62
     7
100
AcDbLine
 10
262.2734916761498
 20
92.01028813988214
 30
0.0
 11
262.2734916761498
 21
212.9733013633
 31
0.0
  0
LINE
  5
C0
330
BD
100
AcDbEntity
  8
_0-2_蟇_豕__
  6
Continuous
 62
     7
100
AcDbLine
 10
266.2677585547638
 20
202.9733013633
 30
0.0
 11
262.2734916761498
 21
202.9733013633
 31
0.0
  0
LINE
  5
C1
330
BD
100
AcDbEntity
  8
_0-2_蟇_豕__ts
  6
Continuous
 62
     7
100
AcDbLine
 10
272.2673923438263
 20
202.9733013633
 30
0.0
 11
278.2670261328888
 21
202.9733013633
 31
0.0
  0
LINE
  5
C2
330
BD
100
AcDbEntity
  8
_0-2_蟇_豕__ts
  6
Continuous
 62
     7
100
AcDbLine
 10
256.2738578870873
 20
202.9733013633
 30
0.0
 11
250.2742240980248
 21
202.9733013633
 31
0.0
  0
INSERT
  5
C3
330
BD
100
AcDbEntity
  8
_0-2_蟇_豕__
100
AcDbBlockReference
  2
-001-VW_EMPTYBALL
 10
266.2677585547638
 20
202.9733013633
 30
0.0
 41
5.9996337890625
 42
5.9996337890625
 50
180.0
  0
INSERT
  5
C4
330
BD
100
AcDbEntity
  8
_0-2_蟇_豕__ts
100
AcDbBlockReference
  2
-001-VW_EMPTYBALL
 10
262.2734916761498
 20
202.9733013633
 30
0.0
 41
5.9996337890625
 42
5.9996337890625
  0
TEXT
  5
C5
330
BD
100
AcDbEntity
  8
_0-2_蟇_豕__ts
 62
     7
100
AcDbText
 10
242.4000717267862
 20
212.2772340228492
 30
0.0
 40
22.32421875
  1
4
100
AcDbText
  0
POINT
  5
C6
330
BD
100
AcDbEntity
  8
_0-3_Defpoints
 62
     7
100
AcDbPoint
 10
266.2677585547638
 20
87.10136891262733
 30
0.0
  0
POINT
  5
C7
330
BD
100
AcDbEntity
  8
_0-3_Defpoints
 62
     7
100
AcDbPoint
 10
262.2734916761498
 20
82.01028813988214
 30
0.0
  0
POINT
  5
C8
330
BD
100
AcDbEntity
  8
_0-3_Defpoints
 62
     7
100
AcDbPoint
 10
262.2734916761498
 20
202.9733013633
 30
0.0
  0
ENDBLK
  5
C9
330
BD
100
AcDbEntity
  8
0
100
AcDbBlockEnd
  0
BLOCK
  5
CA
330
CB
100
AcDbEntity
  8
0
100
AcDbBlockBegin
  2
-010-_D10
 70
     0
 10
0.0
 20
0.0
 30
0.0
  3
-010-_D10
  1

  0
LINE
  5
CC
330
CB
100
AcDbEntity
  8
_0-2_蟇_豕__ts
  6
Continuous
 62
     7
100
AcDbLine
 10
272.2677585547638
 20
92.10136891262719
 30
0.0
 11
272.2677585547638
 21
212.9733013633
 31
0.0
  0
LINE
  5
CD
330
CB
100
AcDbEntity
  8
_0-2_蟇_豕__
  6
Continuous
 62
     7
100
AcDbLine
 10
266.2677585547638
 20
97.10136891262733
 30
0.0
 11
266.2677585547638
 21
212.9733013633
 31
0.0
  0
LINE
  5
CE
330
CB
100
AcDbEntity
  8
_0-2_蟇_豕__ts
  6
Continuous
 62
     7
100
AcDbLine
 10
272.2677585547638
 20
202.9733013633
 30
0.0
 11
266.2677585547638
 21
202.9733013633
 31
0.0
  0
LINE
  5
CF
330
CB
100
AcDbEntity
  8
_0-2_蟇_豕__ts
  6
Continuous
 62
     7
100
AcDbLine
 10
278.2673923438263
 20
202.9733013633
 30
0.0
 11
284.2670261328888
 21
202.9733013633
 31
0.0
  0
LINE
  5
D0
330
CB
100
AcDbEntity
  8
_0-2_蟇_豕__ts
  6
Continuous
 62
     7
100
AcDbLine
 10
260.2681247657013
 20
202.9733013633
 30
0.0
 11
254.2684909766388
 21
202.9733013633
 31
0.0
  0
INSERT
  5
D1
330
CB
100
AcDbEntity
  8
_0-2_蟇_豕__ts
100
AcDbBlockReference
  2
-001-VW_EMPTYBALL
 10
272.2677585547638
 20
202.9733013633
 30
0.0
 41
5.9996337890625
 42
5.9996337890625
 50
180.0
  0
INSERT
  5
D2
330
CB
100
AcDbEntity
  8
_0-2_蟇_豕__ts
100
AcDbBlockReference
  2
-001-VW_EMPTYBALL
 10
266.2677585547638
 20
202.9733013633
 30
0.0
 41
5.9996337890625
 42
5.9996337890625
  0
TEXT
  5
D3
330
CB
100
AcDbEntity
  8
_0-2_蟇_豕__ts
 62
     7
100
AcDbText
 10
284.9733360077412
 20
213.2772340228492
 30
0.0
 40
22.32421875
  1
6
100
AcDbText
  0
POINT
  5
D4
330
CB
100
AcDbEntity
  8
_0-3_Defpoints
 62
     7
100
AcDbPoint
 10
272.2677585547638
 20
82.10136891262719
 30
0.0
  0
POINT
  5
D5
330
CB
100
AcDbEntity
  8
_0-3_Defpoints
 62
     7
100
AcDbPoint
 10
266.2677585547638
 20
87.10136891262733
 30
0.0
  0
POINT
  5
D6
330
CB
100
AcDbEntity
  8
_0-3_Defpoints
 62
     7
100
AcDbPoint
 10
266.2677585547638
 20
202.9733013633
 30
0.0
  0
ENDBLK
  5
D7
330
CB
100
AcDbEntity
  8
0
100
AcDbBlockEnd
  0
BLOCK
  5
D8
330
D9
100
AcDbEntity
  8
0
100
AcDbBlockBegin
  2
-011-_D11
 70
     0
 10
0.0
 20
0.0
 30
0.0
  3
-011-_D11
  1

  0
LINE
  5
DA
330
D9
100
AcDbEntity
  8
_0-2_蟇_豕__ts
  6
Continuous
 62
     7
100
AcDbLine
 10
1122.270728332267
 20
-657.8986310873727
 30
0.0
 11
915.2707283322671
 21
-657.8986310873727
 31
0.0
  0
LINE
  5
DB
330
D9
100
AcDbEntity
  8
_0-2_蟇_豕__ts
  6
Continuous
 62
     7
100
AcDbLine
 10
1127.480061402443
 20
-27.54041637878403
 30
0.0
 11
915.2707283322671
 21
-27.54041637878405
 31
0.0
  0
LINE
  5
DC
330
D9
100
AcDbEntity
  8
_0-2_蟇_豕__ts
  6
Continuous
 62
     7
100
AcDbLine
 10
925.2707283322671
 20
-651.8989972983101
 30
0.0
 11
925.2707283322671
 21
-33.54005016784654
 31
0.0
  0
INSERT
  5
DD
330
D9
100
AcDbEntity
  8
_0-2_蟇_豕__ts
100
AcDbBlockReference
  2
-001-VW_EMPTYBALL
 10
925.2707283322671
 20
-657.8986310873727
 30
0.0
 41
5.9996337890625
 42
5.9996337890625
 50
270.0
  0
INSERT
  5
DE
330
D9
100
AcDbEntity
  8
_0-2_蟇_豕__ts
100
AcDbBlockReference
  2
-001-VW_EMPTYBALL
 10
925.2707283322671
 20
-27.54041637878405
 30
0.0
 41
5.9996337890625
 42
5.9996337890625
 50
90.0
  0
TEXT
  5
DF
330
D9
100
AcDbEntity
  8
_0-2_蟇_豕__ts
 62
     7
100
AcDbText
 10
920.2707283322672
 20
-359.4626877955783
 30
0.0
 40
22.32421875
  1
630
 50
90.0
100
AcDbText
  0
POINT
  5
E0
330
D9
100
AcDbEntity
  8
_0-3_Defpoints
 62
     7
100
AcDbPoint
 10
1132.270728332267
 20
-657.8986310873727
 30
0.0
  0
POINT
  5
E1
330
D9
100
AcDbEntity
  8
_0-3_Defpoints
 62
     7
100
AcDbPoint
 10
1137.480061402443
 20
-27.54041637878403
 30
0.0
  0
POINT
  5
E2
330
D9
100
AcDbEntity
  8
_0-3_Defpoints
 62
     7
100
AcDbPoint
 10
925.2707283322671
 20
-27.54041637878405
 30
0.0
  0
ENDBLK
  5
E3
330
D9
100
AcDbEntity
  8
0
100
AcDbBlockEnd
  0
BLOCK
  5
E4
330
E5
100
AcDbEntity
  8
0
100
AcDbBlockBegin
  2
-012-_D12
 70
     0
 10
0.0
 20
0.0
 30
0.0
  3
-012-_D12
  1

  0
LINE
  5
E6
330
E5
100
AcDbEntity
  8
_0-2_蟇_豕__ts
  6
Continuous
 62
     7
100
AcDbLine
 10
1651.394009535026
 20
77.55526040054734
 30
0.0
 11
1651.394009535026
 21
157.1838194873387
 31
0.0
  0
LINE
  5
E7
330
E5
100
AcDbEntity
  8
_0-2_蟇_豕__ts
  6
Continuous
 62
     7
100
AcDbLine
 10
1037.480061402443
 20
-67.75941552233838
 30
0.0
 11
1037.480061402443
 21
157.1838194873387
 31
0.0
  0
LINE
  5
E8
330
E5
100
AcDbEntity
  8
_0-2_蟇_豕__ts
  6
Continuous
 62
     7
100
AcDbLine
 10
1645.394375745964
 20
147.1838194873387
 30
0.0
 11
1043.479695191506
 21
147.1838194873387
 31
0.0
  0
INSERT
  5
E9
330
E5
100
AcDbEntity
  8
_0-2_蟇_豕__ts
100
AcDbBlockReference
  2
-001-VW_EMPTYBALL
 10
1651.394009535026
 20
147.1838194873387
 30
0.0
 41
5.9996337890625
 42
5.9996337890625
  0
INSERT
  5
EA
330
E5
100
AcDbEntity
  8
_0-2_蟇_豕__ts
100
AcDbBlockReference
  2
-001-VW_EMPTYBALL
 10
1037.480061402443
 20
147.1838194873387
 30
0.0
 41
5.9996337890625
 42
5.9996337890625
 50
180.0
  0
TEXT
  5
EB
330
E5
100
AcDbEntity
  8
_0-2_蟇_豕__ts
 62
     7
100
AcDbText
 10
1327.693871406235
 20
152.1838194873387
 30
0.0
 40
22.32421875
  1
614
100
AcDbText
  0
POINT
  5
EC
330
E5
100
AcDbEntity
  8
_0-3_Defpoints
 62
     7
100
AcDbPoint
 10
1651.394009535026
 20
67.55526040054734
 30
0.0
  0
POINT
  5
ED
330
E5
100
AcDbEntity
  8
_0-3_Defpoints
 62
     7
100
AcDbPoint
 10
1037.480061402443
 20
-77.75941552233838
 30
0.0
  0
POINT
  5
EE
330
E5
100
AcDbEntity
  8
_0-3_Defpoints
 62
     7
100
AcDbPoint
 10
1037.480061402443
 20
147.1838194873387
 30
0.0
  0
ENDBLK
  5
EF
330
E5
100
AcDbEntity
  8
0
100
AcDbBlockEnd
  0
BLOCK
  5
F0
330
F1
100
AcDbEntity
  8
0
100
AcDbBlockBegin
  2
-013-_D13
 70
     0
 10
0.0
 20
0.0
 30
0.0
  3
-013-_D13
  1

  0
LINE
  5
F2
330
F1
100
AcDbEntity
  8
_0-2_蟇_豕__ts
  6
Continuous
 62
     7
100
AcDbLine
 10
1031.980061402443
 20
-237.8986310873727
 30
0.0
 11
975.2707283322671
 21
-237.8986310873727
 31
0.0
  0
LINE
  5
F3
330
F1
100
AcDbEntity
  8
_0-2_蟇_豕__ts
  6
Continuous
 62
     7
100
AcDbLine
 10
1064.427728134899
 20
-27.54041637878413
 30
0.0
 11
975.2707283322671
 21
-27.54041637878414
 31
0.0
  0
LINE
  5
F4
330
F1
100
AcDbEntity
  8
_0-2_蟇_豕__ts
  6
Continuous
 62
     7
100
AcDbLine
 10
985.270728332267
 20
-231.8989972983102
 30
0.0
 11
985.270728332267
 21
-33.54005016784664
 31
0.0
  0
INSERT
  5
F5
330
F1
100
AcDbEntity
  8
_0-2_蟇_豕__ts
100
AcDbBlockReference
  2
-001-VW_EMPTYBALL
 10
985.270728332267
 20
-237.8986310873727
 30
0.0
 41
5.9996337890625
 42
5.9996337890625
 50
270.0
  0
INSERT
  5
F6
330
F1
100
AcDbEntity
  8
_0-2_蟇_豕__
100
AcDbBlockReference
  2
-001-VW_EMPTYBALL
 10
985.270728332267
 20
-27.54041637878414
 30
0.0
 41
5.9996337890625
 42
5.9996337890625
 50
90.0
  0
TEXT
  5
F7
330
F1
100
AcDbEntity
  8
_0-2_蟇_豕__
 62
     7
100
AcDbText
 10
975.1621093749999
 20
-146.7431640625
 30
0.0
 40
22.32421875
  1
210
 50
90.0
100
AcDbText
  0
POINT
  5
F8
330
F1
100
AcDbEntity
  8
_0-3_Defpoints
 62
     7
100
AcDbPoint
 10
1041.980061402443
 20
-237.8986310873727
 30
0.0
  0
POINT
  5
F9
330
F1
100
AcDbEntity
  8
_0-3_Defpoints
 62
     7
100
AcDbPoint
 10
1074.427728134899
 20
-27.54041637878413
 30
0.0
  0
POINT
  5
FA
330
F1
100
AcDbEntity
  8
_0-3_Defpoints
 62
     7
100
AcDbPoint
 10
985.270728332267
 20
-27.54041637878414
 30
0.0
  0
ENDBLK
  5
FB
330
F1
100
AcDbEntity
  8
0
100
AcDbBlockEnd
  0
BLOCK
  5
FC
330
FD
100
AcDbEntity
  8
0
100
AcDbBlockBegin
  2
-014-_D14
 70
     0
 10
0.0
 20
0.0
 30
0.0
  3
-014-_D14
  1

  0
LINE
  5
FE
330
FD
100
AcDbEntity
  8
_0-2_蟇_豕__ts
  6
Continuous
 62
     7
100
AcDbLine
 10
1022.270728332267
 20
-657.8986310873727
 30
0.0
 11
975.2707283322671
 21
-657.8986310873727
 31
0.0
  0
LINE
  5
FF
330
FD
100
AcDbEntity
  8
_0-2_蟇_豕__
  6
Continuous
 62
     7
100
AcDbLine
 10
1031.980061402443
 20
-237.8986310873727
 30
0.0
 11
975.2707283322671
 21
-237.8986310873727
 31
0.0
  0
LINE
  5
100
330
FD
100
AcDbEntity
  8
_0-2_蟇_豕__ts
  6
Continuous
 62
     7
100
AcDbLine
 10
985.270728332267
 20
-651.8989972983101
 30
0.0
 11
985.270728332267
 21
-243.8982648764352
 31
0.0
  0
INSERT
  5
101
330
FD
100
AcDbEntity
  8
_0-2_蟇_豕__ts
100
AcDbBlockReference
  2
-001-VW_EMPTYBALL
 10
985.270728332267
 20
-657.8986310873727
 30
0.0
 41
5.9996337890625
 42
5.9996337890625
 50
270.0
  0
INSERT
  5
102
330
FD
100
AcDbEntity
  8
_0-2_蟇_豕__ts
100
AcDbBlockReference
  2
-001-VW_EMPTYBALL
 10
985.270728332267
 20
-237.8986310873727
 30
0.0
 41
5.9996337890625
 42
5.9996337890625
 50
90.0
  0
TEXT
  5
103
330
FD
100
AcDbEntity
  8
_0-2_蟇_豕__ts
 62
     7
100
AcDbText
 10
972.8590877072671
 20
-442.5660490556185
 30
0.0
 40
22.32421875
  1
420
 50
90.0
100
AcDbText
  0
POINT
  5
104
330
FD
100
AcDbEntity
  8
_0-3_Defpoints
 62
     7
100
AcDbPoint
 10
1032.270728332267
 20
-657.8986310873727
 30
0.0
  0
POINT
  5
105
330
FD
100
AcDbEntity
  8
_0-3_Defpoints
 62
     7
100
AcDbPoint
 10
1041.980061402443
 20
-237.8986310873727
 30
0.0
  0
POINT
  5
106
330
FD
100
AcDbEntity
  8
_0-3_Defpoints
 62
     7
100
AcDbPoint
 10
985.270728332267
 20
-237.8986310873727
 30
0.0
  0
ENDBLK
  5
107
330
FD
100
AcDbEntity
  8
0
100
AcDbBlockEnd
  0
BLOCK
  5
108
330
109
100
AcDbEntity
  8
0
100
AcDbBlockBegin
  2
-015-_D15
 70
     0
 10
0.0
 20
0.0
 30
0.0
  3
-015-_D15
  1

  0
LINE
  5
10A
330
109
100
AcDbEntity
  8
_0-2_蟇_豕__ts
  6
Continuous
 62
     7
100
AcDbLine
 10
1641.872321369046
 20
-657.8986310873727
 30
0.0
 11
1719.270728332267
 21
-657.8986310873727
 31
0.0
  0
LINE
  5
10B
330
109
100
AcDbEntity
  8
_0-2_蟇_豕__ts
  6
Continuous
 62
     7
100
AcDbLine
 10
1607.294918097787
 20
86.65570295486155
 30
0.0
 11
1719.270728332267
 21
86.65570295486155
 31
0.0
  0
LINE
  5
10C
330
109
100
AcDbEntity
  8
_0-2_蟇_豕__3__100__AcDbSymbolTable___70_______1____0__STYLE____5__10__100__AcDbSymbolTableRecord_
  6
Continuous
 62
     7
100
AcDbLine
 10
1709.270728332267
 20
-651.8989972983101
 30
0.0
 11
1709.270728332267
 21
80.65606916579907
 31
0.0
  0
INSERT
  5
10D
330
109
100
AcDbEntity
  8
_0-2_蟇_豕__ts
100
AcDbBlockReference
  2
-001-VW_EMPTYBALL
 10
1709.270728332267
 20
-657.8986310873727
 30
0.0
 41
5.9996337890625
 42
5.9996337890625
 50
270.0
  0
INSERT
  5
10E
330
109
100
AcDbEntity
  8
_0-2_蟇_豕__ts
100
AcDbBlockReference
  2
-001-VW_EMPTYBALL
 10
1709.270728332267
 20
86.65570295486155
 30
0.0
 41
5.9996337890625
 42
5.9996337890625
 50
90.0
  0
TEXT
  5
10F
330
109
100
AcDbEntity
  8
_0-2_蟇_豕__
 62
     7
100
AcDbText
 10
1704.270728332267
 20
-302.3646281287556
 30
0.0
 40
22.32421875
  1
745
 50
90.0
100
AcDbText
  0
POINT
  5
110
330
109
100
AcDbEntity
  8
_0-3_Defpoints
 62
     7
100
AcDbPoint
 10
1631.872321369046
 20
-657.8986310873727
 30
0.0
  0
POINT
  5
111
330
109
100
AcDbEntity
  8
_0-3_Defpoints
 62
     7
100
AcDbPoint
 10
1597.294918097787
 20
86.65570295486155
 30
0.0
  0
POINT
  5
112
330
109
100
AcDbEntity
  8
_0-3_Defpoints
 62
     7
100
AcDbPoint
 10
1709.270728332267
 20
86.65570295486155
 30
0.0
  0
ENDBLK
  5
113
330
109
100
AcDbEntity
  8
0
100
AcDbBlockEnd
  0
BLOCK
  5
114
330
115
100
AcDbEntity
  8
0
100
AcDbBlockBegin
  2
-016-繧_繝_繝_繝__2-1
 70
     0
 10
0.0
 20
0.0
 30
0.0
  3
-016-繧_繝_繝_繝__2-1
  1

  0
LINE
  5
116
330
115
100
AcDbEntity
  8
_0-1_荳_闊_
  6
Continuous
 62
     7
100
AcDbLine
 10
-1668.490600530684
 20
-660.8235873749037
 30
0.0
 11
-1368.490600530684
 21
-660.8235873749037
 31
0.0
  0
LINE
  5
117
330
115
100
AcDbEntity
  8
_0-1_荳_闊_
  6
Continuous
 62
     7
100
AcDbLine
 10
-1368.490600530684
 20
-660.8235873749037
 30
0.0
 11
-1368.490600530684
 21
-960.8235873749036
 31
0.0
  0
LINE
  5
118
330
115
100
AcDbEntity
  8
_0-1_荳_闊_
  6
Continuous
 62
     7
100
AcDbLine
 10
-1368.490600530684
 20
-960.8235873749036
 30
0.0
 11
-1668.490600530684
 21
-960.8235873749036
 31
0.0
  0
LINE
  5
119
330
115
100
AcDbEntity
  8
_0-1_荳_闊_
  6
Continuous
 62
     7
100
AcDbLine
 10
-1668.490600530684
 20
-960.8235873749036
 30
0.0
 11
-1668.490600530684
 21
-660.8235873749037
 31
0.0
  0
LINE
  5
11A
330
115
100
AcDbEntity
  8
_0-1_荳_闊_
  6
Continuous
 62
     7
100
AcDbLine
 10
-1693.490600530684
 20
-960.8235873749032
 30
0.0
 11
-1343.490600530684
 21
-960.8235873749032
 31
0.0
  0
LINE
  5
11B
330
115
100
AcDbEntity
  8
_0-1_荳_闊_
  6
Continuous
 62
     7
100
AcDbLine
 10
-1343.490600530684
 20
-960.8235873749032
 30
0.0
 11
-1343.490600530684
 21
-1010.823587374903
 31
0.0
  0
LINE
  5
11C
330
115
100
AcDbEntity
  8
_0-1_荳_闊_
  6
Continuous
 62
     7
100
AcDbLine
 10
-1343.490600530684
 20
-1010.823587374903
 30
0.0
 11
-1693.490600530684
 21
-1010.823587374903
 31
0.0
  0
LINE
  5
11D
330
115
100
AcDbEntity
  8
_0-1_荳_闊_
  6
Continuous
 62
     7
100
AcDbLine
 10
-1693.490600530684
 20
-1010.823587374903
 30
0.0
 11
-1693.490600530684
 21
-960.8235873749032
 31
0.0
  0
LINE
  5
11E
330
115
100
AcDbEntity
  8
_0-1_荳_闊_
  6
Continuous
 62
     7
100
AcDbLine
 10
-1680.86588961663
 20
-1010.823587374903
 30
0.0
 11
-1651.998376157152
 21
-960.8235873749036
 31
0.0
  0
LINE
  5
11F
330
115
100
AcDbEntity
  8
_0-1_荳_闊_
  6
Continuous
 62
     7
100
AcDbLine
 10
-1654.600571816782
 20
-965.3307224686184
 30
0.0
 11
-1659.107706910497
 21
-960.8235873749036
 31
0.0
  0
LINE
  5
120
330
115
100
AcDbEntity
  8
_0-1_荳_闊_
  6
Continuous
 62
     7
100
AcDbLine
 10
-1673.756558863285
 20
-1010.823587374903
 30
0.0
 11
-1678.263693957
 21
-1006.316452281188
 31
0.0
  0
LINE
  5
121
330
115
100
AcDbEntity
  8
_0-1_荳_闊_
  6
Continuous
 62
     7
100
AcDbLine
 10
-1630.426158728762
 20
-1010.823587374903
 30
0.0
 11
-1601.558645269284
 21
-960.8235873749036
 31
0.0
  0
LINE
  5
122
330
115
100
AcDbEntity
  8
_0-1_荳_闊_
  6
Continuous
 62
     7
100
AcDbLine
 10
-1604.160840928914
 20
-965.3307224686184
 30
0.0
 11
-1608.667976022629
 21
-960.8235873749036
 31
0.0
  0
LINE
  5
123
330
115
100
AcDbEntity
  8
_0-1_荳_闊_
  6
Continuous
 62
     7
100
AcDbLine
 10
-1623.316827975417
 20
-1010.823587374903
 30
0.0
 11
-1627.823963069132
 21
-1006.316452281188
 31
0.0
  0
LINE
  5
124
330
115
100
AcDbEntity
  8
_0-1_荳_闊_
  6
Continuous
 62
     7
100
AcDbLine
 10
-1579.986427840894
 20
-1010.823587374903
 30
0.0
 11
-1551.118914381416
 21
-960.8235873749036
 31
0.0
  0
LINE
  5
125
330
115
100
AcDbEntity
  8
_0-1_荳_闊_
  6
Continuous
 62
     7
100
AcDbLine
 10
-1553.721110041046
 20
-965.3307224686184
 30
0.0
 11
-1558.228245134761
 21
-960.8235873749036
 31
0.0
  0
LINE
  5
126
330
115
100
AcDbEntity
  8
_0-1_荳_闊_
  6
Continuous
 62
     7
100
AcDbLine
 10
-1572.877097087549
 20
-1010.823587374903
 30
0.0
 11
-1577.384232181264
 21
-1006.316452281188
 31
0.0
  0
LINE
  5
127
330
115
100
AcDbEntity
  8
_0-1_荳_闊_
  6
Continuous
 62
     7
100
AcDbLine
 10
-1529.546696953025
 20
-1010.823587374903
 30
0.0
 11
-1500.679183493548
 21
-960.8235873749036
 31
0.0
  0
LINE
  5
128
330
115
100
AcDbEntity
  8
_0-1_荳_闊_
  6
Continuous
 62
     7
100
AcDbLine
 10
-1503.281379153178
 20
-965.3307224686184
 30
0.0
 11
-1507.788514246893
 21
-960.8235873749036
 31
0.0
  0
LINE
  5
129
330
115
100
AcDbEntity
  8
_0-1_荳_闊_
  6
Continuous
 62
     7
100
AcDbLine
 10
-1522.437366199681
 20
-1010.823587374903
 30
0.0
 11
-1526.944501293396
 21
-1006.316452281188
 31
0.0
  0
LINE
  5
12A
330
115
100
AcDbEntity
  8
_0-1_荳_闊_
  6
Continuous
 62
     7
100
AcDbLine
 10
-1479.106966065159
 20
-1010.823587374903
 30
0.0
 11
-1450.23945260568
 21
-960.8235873749036
 31
0.0
  0
LINE
  5
12B
330
115
100
AcDbEntity
  8
_0-1_荳_闊_
  6
Continuous
 62
     7
100
AcDbLine
 10
-1452.84164826531
 20
-965.3307224686184
 30
0.0
 11
-1457.348783359025
 21
-960.8235873749036
 31
0.0
  0
LINE
  5
12C
330
115
100
AcDbEntity
  8
_0-1_荳_闊_
  6
Continuous
 62
     7
100
AcDbLine
 10
-1471.997635311813
 20
-1010.823587374903
 30
0.0
 11
-1476.504770405528
 21
-1006.316452281188
 31
0.0
  0
LINE
  5
12D
330
115
100
AcDbEntity
  8
_0-1_荳_闊_
  6
Continuous
 62
     7
100
AcDbLine
 10
-1428.667235177291
 20
-1010.823587374903
 30
0.0
 11
-1399.799721717811
 21
-960.8235873749036
 31
0.0
  0
LINE
  5
12E
330
115
100
AcDbEntity
  8
_0-1_荳_闊_
  6
Continuous
 62
     7
100
AcDbLine
 10
-1402.401917377442
 20
-965.3307224686184
 30
0.0
 11
-1406.909052471158
 21
-960.8235873749036
 31
0.0
  0
LINE
  5
12F
330
115
100
AcDbEntity
  8
_0-1_荳_闊_
  6
Continuous
 62
     7
100
AcDbLine
 10
-1421.557904423946
 20
-1010.823587374903
 30
0.0
 11
-1426.065039517661
 21
-1006.316452281188
 31
0.0
  0
LINE
  5
130
330
115
100
AcDbEntity
  8
_0-1_荳_闊_
  6
Continuous
 62
     7
100
AcDbLine
 10
-1378.227504289423
 20
-1010.823587374903
 30
0.0
 11
-1349.359990829945
 21
-960.8235873749036
 31
0.0
  0
LINE
  5
131
330
115
100
AcDbEntity
  8
_0-1_荳_闊_
  6
Continuous
 62
     7
100
AcDbLine
 10
-1351.962186489575
 20
-965.3307224686184
 30
0.0
 11
-1356.46932158329
 21
-960.8235873749036
 31
0.0
  0
LINE
  5
132
330
115
100
AcDbEntity
  8
_0-1_荳_闊_
  6
Continuous
 62
     7
100
AcDbLine
 10
-1371.118173536078
 20
-1010.823587374903
 30
0.0
 11
-1375.625308629793
 21
-1006.316452281188
 31
0.0
  0
LINE
  5
133
330
115
100
AcDbEntity
  8
_0-1_荳_闊_
  6
Continuous
 62
     7
100
AcDbLine
 10
-1368.490600530684
 20
-670.7396018290744
 30
0.0
 11
-1658.841146493481
 21
-961.0901477919187
 31
0.0
  0
LINE
  5
134
330
115
100
AcDbEntity
  8
_0-1_荳_闊_
  6
Continuous
 62
     7
100
AcDbLine
 10
-1677.60115493897
 20
-960.8235873749032
 30
0.0
 11
-1677.867715355985
 21
-961.0901477919187
 31
0.0
  0
LINE
  5
135
330
115
100
AcDbEntity
  8
_0-1_荳_闊_
  6
Continuous
 62
     7
100
AcDbLine
 10
-1368.490600530684
 20
-685.7378620293506
 30
0.0
 11
-1643.842886293208
 21
-961.0901477919187
 31
0.0
  0
LINE
  5
136
330
115
100
AcDbEntity
  8
_0-1_荳_闊_
  6
Continuous
 62
     7
100
AcDbLine
 10
-1368.490600530684
 20
-700.7361222296268
 30
0.0
 11
-1628.844626092934
 21
-961.0901477919187
 31
0.0
  0
ENDBLK
  5
137
330
115
100
AcDbEntity
  8
0
100
AcDbBlockEnd
  0
BLOCK
  5
138
330
139
100
AcDbEntity
  8
0
100
AcDbBlockBegin
  2
-017-繧_繝_繝_繝__3-1
 70
     0
 10
0.0
 20
0.0
 30
0.0
  3
-017-繧_繝_繝_繝__3-1
  1

  0
LINE
  5
13A
330
139
100
AcDbEntity
  8
_0-1_荳_闊_
  6
Continuous
 62
     7
100
AcDbLine
 10
89.51493858736148
 20
-660.8235873749037
 30
0.0
 11
389.5149385873615
 21
-660.8235873749037
 31
0.0
  0
LINE
  5
13B
330
139
100
AcDbEntity
  8
_0-1_荳_闊_
  6
Continuous
 62
     7
100
AcDbLine
 10
389.5149385873615
 20
-660.8235873749037
 30
0.0
 11
389.5149385873615
 21
-960.8235873749036
 31
0.0
  0
LINE
  5
13C
330
139
100
AcDbEntity
  8
_0-1_荳_闊_
  6
Continuous
 62
     7
100
AcDbLine
 10
389.5149385873615
 20
-960.8235873749036
 30
0.0
 11
89.51493858736148
 21
-960.8235873749036
 31
0.0
  0
LINE
  5
13D
330
139
100
AcDbEntity
  8
_0-1_荳_闊_
  6
Continuous
 62
     7
100
AcDbLine
 10
89.51493858736148
 20
-960.8235873749036
 30
0.0
 11
89.51493858736148
 21
-660.8235873749037
 31
0.0
  0
LINE
  5
13E
330
139
100
AcDbEntity
  8
_0-1_荳_闊_
  6
Continuous
 62
     7
100
AcDbLine
 10
64.51493858736149
 20
-960.8235873749032
 30
0.0
 11
414.5149385873614
 21
-960.8235873749032
 31
0.0
  0
LINE
  5
13F
330
139
100
AcDbEntity
  8
_0-1_荳_闊_
  6
Continuous
 62
     7
100
AcDbLine
 10
414.5149385873614
 20
-960.8235873749032
 30
0.0
 11
414.5149385873614
 21
-1010.823587374903
 31
0.0
  0
LINE
  5
140
330
139
100
AcDbEntity
  8
_0-1_荳_闊_
  6
Continuous
 62
     7
100
AcDbLine
 10
414.5149385873614
 20
-1010.823587374903
 30
0.0
 11
64.51493858736149
 21
-1010.823587374903
 31
0.0
  0
LINE
  5
141
330
139
100
AcDbEntity
  8
_0-1_荳_闊_
  6
Continuous
 62
     7
100
AcDbLine
 10
64.51493858736149
 20
-1010.823587374903
 30
0.0
 11
64.51493858736149
 21
-960.8235873749032
 31
0.0
  0
LINE
  5
142
330
139
100
AcDbEntity
  8
_0-1_荳_闊_
  6
Continuous
 62
     7
100
AcDbLine
 10
77.13964950141553
 20
-1010.823587374903
 30
0.0
 11
106.0071629608938
 21
-960.8235873749036
 31
0.0
  0
LINE
  5
143
330
139
100
AcDbEntity
  8
_0-1_荳_闊_
  6
Continuous
 62
     7
100
AcDbLine
 10
103.4049673012637
 20
-965.3307224686184
 30
0.0
 11
98.89783220754907
 21
-960.8235873749036
 31
0.0
  0
LINE
  5
144
330
139
100
AcDbEntity
  8
_0-1_荳_闊_
  6
Continuous
 62
     7
100
AcDbLine
 10
84.24898025476068
 20
-1010.823587374903
 30
0.0
 11
79.74184516104561
 21
-1006.316452281188
 31
0.0
  0
LINE
  5
145
330
139
100
AcDbEntity
  8
_0-1_荳_闊_
  6
Continuous
 62
     7
100
AcDbLine
 10
127.5793803892834
 20
-1010.823587374903
 30
0.0
 11
156.4468938487616
 21
-960.8235873749036
 31
0.0
  0
LINE
  5
146
330
139
100
AcDbEntity
  8
_0-1_荳_闊_
  6
Continuous
 62
     7
100
AcDbLine
 10
153.8446981891316
 20
-965.3307224686184
 30
0.0
 11
149.337563095417
 21
-960.8235873749036
 31
0.0
  0
LINE
  5
147
330
139
100
AcDbEntity
  8
_0-1_荳_闊_
  6
Continuous
 62
     7
100
AcDbLine
 10
134.6887111426286
 20
-1010.823587374903
 30
0.0
 11
130.1815760489135
 21
-1006.316452281188
 31
0.0
  0
LINE
  5
148
330
139
100
AcDbEntity
  8
_0-1_荳_闊_
  6
Continuous
 62
     7
100
AcDbLine
 10
178.0191112771513
 20
-1010.823587374903
 30
0.0
 11
206.8866247366295
 21
-960.8235873749036
 31
0.0
  0
LINE
  5
149
330
139
100
AcDbEntity
  8
_0-1_荳_闊_
  6
Continuous
 62
     7
100
AcDbLine
 10
204.2844290769995
 20
-965.3307224686184
 30
0.0
 11
199.7772939832848
 21
-960.8235873749036
 31
0.0
  0
LINE
  5
14A
330
139
100
AcDbEntity
  8
_0-1_荳_闊_
  6
Continuous
 62
     7
100
AcDbLine
 10
185.1284420304964
 20
-1010.823587374903
 30
0.0
 11
180.6213069367814
 21
-1006.316452281188
 31
0.0
  0
LINE
  5
14B
330
139
100
AcDbEntity
  8
_0-1_荳_闊_
  6
Continuous
 62
     7
100
AcDbLine
 10
228.4588421650192
 20
-1010.823587374903
 30
0.0
 11
257.3263556244974
 21
-960.8235873749036
 31
0.0
  0
LINE
  5
14C
330
139
100
AcDbEntity
  8
_0-1_荳_闊_
  6
Continuous
 62
     7
100
AcDbLine
 10
254.7241599648673
 20
-965.3307224686184
 30
0.0
 11
250.2170248711527
 21
-960.8235873749036
 31
0.0
  0
LINE
  5
14D
330
139
100
AcDbEntity
  8
_0-1_荳_闊_
  6
Continuous
 62
     7
100
AcDbLine
 10
235.5681729183643
 20
-1010.823587374903
 30
0.0
 11
231.0610378246492
 21
-1006.316452281188
 31
0.0
  0
LINE
  5
14E
330
139
100
AcDbEntity
  8
_0-1_荳_闊_
  6
Continuous
 62
     7
100
AcDbLine
 10
278.8985730528871
 20
-1010.823587374903
 30
0.0
 11
307.7660865123653
 21
-960.8235873749036
 31
0.0
  0
LINE
  5
14F
330
139
100
AcDbEntity
  8
_0-1_荳_闊_
  6
Continuous
 62
     7
100
AcDbLine
 10
305.1638908527352
 20
-965.3307224686184
 30
0.0
 11
300.6567557590206
 21
-960.8235873749036
 31
0.0
  0
LINE
  5
150
330
139
100
AcDbEntity
  8
_0-1_荳_闊_
  6
Continuous
 62
     7
100
AcDbLine
 10
286.0079038062322
 20
-1010.823587374903
 30
0.0
 11
281.500768712517
 21
-1006.316452281188
 31
0.0
  0
LINE
  5
151
330
139
100
AcDbEntity
  8
_0-1_荳_闊_
  6
Continuous
 62
     7
100
AcDbLine
 10
329.3383039407548
 20
-1010.823587374903
 30
0.0
 11
358.2058174002332
 21
-960.8235873749036
 31
0.0
  0
LINE
  5
152
330
139
100
AcDbEntity
  8
_0-1_荳_闊_
  6
Continuous
 62
     7
100
AcDbLine
 10
355.6036217406031
 20
-965.3307224686184
 30
0.0
 11
351.096486646888
 21
-960.8235873749036
 31
0.0
  0
LINE
  5
153
330
139
100
AcDbEntity
  8
_0-1_荳_闊_
  6
Continuous
 62
     7
100
AcDbLine
 10
336.4476346940996
 20
-1010.823587374903
 30
0.0
 11
331.940499600385
 21
-1006.316452281188
 31
0.0
  0
LINE
  5
154
330
139
100
AcDbEntity
  8
_0-1_荳_闊_
  6
Continuous
 62
     7
100
AcDbLine
 10
379.7780348286228
 20
-1010.823587374903
 30
0.0
 11
408.6455482881011
 21
-960.8235873749036
 31
0.0
  0
LINE
  5
155
330
139
100
AcDbEntity
  8
_0-1_荳_闊_
  6
Continuous
 62
     7
100
AcDbLine
 10
406.0433526284709
 20
-965.3307224686184
 30
0.0
 11
401.5362175347559
 21
-960.8235873749036
 31
0.0
  0
LINE
  5
156
330
139
100
AcDbEntity
  8
_0-1_荳_闊_
  6
Continuous
 62
     7
100
AcDbLine
 10
386.8873655819675
 20
-1010.823587374903
 30
0.0
 11
382.3802304882529
 21
-1006.316452281188
 31
0.0
  0
LINE
  5
157
330
139
100
AcDbEntity
  8
_0-1_荳_闊_
  6
Continuous
 62
     7
100
AcDbLine
 10
389.5149385873615
 20
-670.7396018290744
 30
0.0
 11
99.16439262456425
 21
-961.0901477919187
 31
0.0
  0
LINE
  5
158
330
139
100
AcDbEntity
  8
_0-1_荳_闊_
  6
Continuous
 62
     7
100
AcDbLine
 10
80.40438417907536
 20
-960.8235873749032
 30
0.0
 11
80.13782376206018
 21
-961.0901477919187
 31
0.0
  0
LINE
  5
159
330
139
100
AcDbEntity
  8
_0-1_荳_闊_
  6
Continuous
 62
     7
100
AcDbLine
 10
389.5149385873615
 20
-685.7378620293506
 30
0.0
 11
114.162652824838
 21
-961.0901477919187
 31
0.0
  0
LINE
  5
15A
330
139
100
AcDbEntity
  8
_0-1_荳_闊_
  6
Continuous
 62
     7
100
AcDbLine
 10
389.5149385873615
 20
-700.7361222296268
 30
0.0
 11
129.1609130251118
 21
-961.0901477919187
 31
0.0
  0
ENDBLK
  5
15B
330
139
100
AcDbEntity
  8
0
100
AcDbBlockEnd
  0
BLOCK
  5
15C
330
15D
100
AcDbEntity
  8
0
100
AcDbBlockBegin
  2
-018-_D18
 70
     0
 10
0.0
 20
0.0
 30
0.0
  3
-018-_D18
  1

  0
LINE
  5
15E
330
15D
100
AcDbEntity
  8
_0-2_蟇_豕__
  6
Continuous
 62
     7
100
AcDbLine
 10
426.2790307941958
 20
-957.8986310873721
 30
0.0
 11
550.0
 21
-957.8986310873721
 31
0.0
  0
LINE
  5
15F
330
15D
100
AcDbEntity
  8
_0-2_蟇_豕__ts
  6
Continuous
 62
     7
100
AcDbLine
 10
417.1462891050276
 20
-657.8986473449315
 30
0.0
 11
550.0
 21
-657.8986473449315
 31
0.0
  0
LINE
  5
160
330
15D
100
AcDbEntity
  8
_0-2_蟇_豕__ts
  6
Continuous
 62
     7
100
AcDbLine
 10
540.0
 20
-951.8989972983098
 30
0.0
 11
540.0
 21
-663.898281133994
 31
0.0
  0
INSERT
  5
161
330
15D
100
AcDbEntity
  8
_0-2_蟇_豕__ts
100
AcDbBlockReference
  2
-001-VW_EMPTYBALL
 10
540.0
 20
-957.8986310873721
 30
0.0
 41
5.9996337890625
 42
5.9996337890625
 50
270.0
  0
INSERT
  5
162
330
15D
100
AcDbEntity
  8
_0-2_蟇_豕__ts
100
AcDbBlockReference
  2
-001-VW_EMPTYBALL
 10
540.0
 20
-657.8986473449315
 30
0.0
 41
5.9996337890625
 42
5.9996337890625
 50
90.0
  0
TEXT
  5
163
330
15D
100
AcDbEntity
  8
_0-2_蟇_豕__
 62
     7
100
AcDbText
 10
535.0
 20
-824.6418032786518
 30
0.0
 40
22.32421875
  1
300
 50
90.0
100
AcDbText
  0
POINT
  5
164
330
15D
100
AcDbEntity
  8
_0-3_Defpoints
 62
     7
100
AcDbPoint
 10
416.2790307941958
 20
-957.8986310873721
 30
0.0
  0
POINT
  5
165
330
15D
100
AcDbEntity
  8
_0-3_Defpoints
 62
     7
100
AcDbPoint
 10
407.1462891050276
 20
-657.8986473449315
 30
0.0
  0
POINT
  5
166
330
15D
100
AcDbEntity
  8
_0-3_Defpoints
 62
     7
100
AcDbPoint
 10
540.0
 20
-657.8986473449315
 30
0.0
  0
ENDBLK
  5
167
330
15D
100
AcDbEntity
  8
0
100
AcDbBlockEnd
  0
BLOCK
  5
168
330
169
100
AcDbEntity
  8
0
100
AcDbBlockBegin
  2
-019-_D19
 70
     0
 10
0.0
 20
0.0
 30
0.0
  3
-019-_D19
  1

  0
LINE
  5
16A
330
169
100
AcDbEntity
  8
_0-2_蟇_豕__ts
  6
Continuous
 62
     7
100
AcDbLine
 10
426.2790307941958
 20
-1007.898631087372
 30
0.0
 11
550.0
 21
-1007.898631087372
 31
0.0
  0
LINE
  5
16B
330
169
100
AcDbEntity
  8
_0-2_蟇_豕__ts
  6
Continuous
 62
     7
100
AcDbLine
 10
426.2790307941958
 20
-957.8986310873721
 30
0.0
 11
550.0
 21
-957.8986310873721
 31
0.0
  0
LINE
  5
16C
330
169
100
AcDbEntity
  8
_0-2_蟇_豕__
  6
Continuous
 62
     7
100
AcDbLine
 10
540.0
 20
-1001.89899729831
 30
0.0
 11
540.0
 21
-963.8982648764347
 31
0.0
  0
INSERT
  5
16D
330
169
100
AcDbEntity
  8
_0-2_蟇_豕__ts
100
AcDbBlockReference
  2
-001-VW_EMPTYBALL
 10
540.0
 20
-1007.898631087372
 30
0.0
 41
5.9996337890625
 42
5.9996337890625
 50
270.0
  0
INSERT
  5
16E
330
169
100
AcDbEntity
  8
_0-2_蟇_豕__ts
100
AcDbBlockReference
  2
-001-VW_EMPTYBALL
 10
540.0
 20
-957.8986310873721
 30
0.0
 41
5.9996337890625
 42
5.9996337890625
 50
90.0
  0
TEXT
  5
16F
330
169
100
AcDbEntity
  8
_0-2_蟇_豕__
 62
     7
100
AcDbText
 10
535.0
 20
-994.0607404623722
 30
0.0
 40
22.32421875
  1
50
 50
90.0
100
AcDbText
  0
POINT
  5
170
330
169
100
AcDbEntity
  8
_0-3_Defpoints
 62
     7
100
AcDbPoint
 10
416.2790307941958
 20
-1007.898631087372
 30
0.0
  0
POINT
  5
171
330
169
100
AcDbEntity
  8
_0-3_Defpoints
 62
     7
100
AcDbPoint
 10
416.2790307941958
 20
-957.8986310873721
 30
0.0
  0
POINT
  5
172
330
169
100
AcDbEntity
  8
_0-3_Defpoints
 62
     7
100
AcDbPoint
 10
540.0
 20
-957.8986310873721
 30
0.0
  0
ENDBLK
  5
173
330
169
100
AcDbEntity
  8
0
100
AcDbBlockEnd
  0
BLOCK
  5
174
330
175
100
AcDbEntity
  8
0
100
AcDbBlockBegin
  2
-020-_D20
 70
     0
 10
0.0
 20
0.0
 30
0.0
  3
-020-_D20
  1

  0
LINE
  5
176
330
175
100
AcDbEntity
  8
_0-2_蟇_豕__3__100__AcDbSymbolTable___70_______1____0__STYLE____5__10__100__AcDbSymbolTableRecord_
  6
Continuous
 62
     7
100
AcDbLine
 10
1655.683414054285
 20
-661.7738758156535
 30
0.0
 11
1655.683414054285
 21
-812.0266986366999
 31
0.0
  0
LINE
  5
177
330
175
100
AcDbEntity
  8
_0-2_蟇_豕__ts
  6
Continuous
 62
     7
100
AcDbLine
 10
1037.480061402443
 20
-662.8986310873727
 30
0.0
 11
1037.480061402443
 21
-812.0266986366999
 31
0.0
  0
LINE
  5
178
330
175
100
AcDbEntity
  8
_0-2_蟇_豕__ts
  6
Continuous
 62
     7
100
AcDbLine
 10
1649.683780265223
 20
-802.0266986366999
 30
0.0
 11
1043.479695191506
 21
-802.0266986366999
 31
0.0
  0
INSERT
  5
179
330
175
100
AcDbEntity
  8
_0-2_蟇_豕__ts
100
AcDbBlockReference
  2
-001-VW_EMPTYBALL
 10
1655.683414054285
 20
-802.0266986366999
 30
0.0
 41
5.9996337890625
 42
5.9996337890625
  0
INSERT
  5
17A
330
175
100
AcDbEntity
  8
_0-2_蟇_豕__ts
100
AcDbBlockReference
  2
-001-VW_EMPTYBALL
 10
1037.480061402443
 20
-802.0266986366999
 30
0.0
 41
5.9996337890625
 42
5.9996337890625
 50
180.0
  0
TEXT
  5
17B
330
175
100
AcDbEntity
  8
_0-2_蟇_豕__3__100__AcDbSymbolTable___70_______1____0__STYLE____5__10__100__AcDbSymbolTableRecord_
 62
     7
100
AcDbText
 10
1329.838573665863
 20
-797.0266986367
 30
0.0
 40
22.32421875
  1
618
100
AcDbText
  0
POINT
  5
17C
330
175
100
AcDbEntity
  8
_0-3_Defpoints
 62
     7
100
AcDbPoint
 10
1655.683414054285
 20
-651.7738758156536
 30
0.0
  0
POINT
  5
17D
330
175
100
AcDbEntity
  8
_0-3_Defpoints
 62
     7
100
AcDbPoint
 10
1037.480061402443
 20
-652.8986310873726
 30
0.0
  0
POINT
  5
17E
330
175
100
AcDbEntity
  8
_0-3_Defpoints
 62
     7
100
AcDbPoint
 10
1037.480061402443
 20
-802.0266986366999
 30
0.0
  0
ENDBLK
  5
17F
330
175
100
AcDbEntity
  8
0
100
AcDbBlockEnd
  0
BLOCK
  5
180
330
181
100
AcDbEntity
  8
0
100
AcDbBlockBegin
  2
-021-_D21
 70
     0
 10
0.0
 20
0.0
 30
0.0
  3
-021-_D21
  1

  0
LINE
  5
182
330
181
100
AcDbEntity
  8
_0-2_蟇_豕__ts
  6
Continuous
 62
     7
100
AcDbLine
 10
1696.211427987108
 20
-967.8986310873726
 30
0.0
 11
1696.211427987108
 21
-1113.770254041571
 31
0.0
  0
LINE
  5
183
330
181
100
AcDbEntity
  8
_0-2_蟇_豕__ts
  6
Continuous
 62
     7
100
AcDbLine
 10
996.2114279871084
 20
-967.8986310873726
 30
0.0
 11
996.2114279871084
 21
-1113.770254041571
 31
0.0
  0
LINE
  5
184
330
181
100
AcDbEntity
  8
_0-2_蟇_豕__ts
  6
Continuous
 62
     7
100
AcDbLine
 10
1690.211794198046
 20
-1103.770254041571
 30
0.0
 11
1002.211061776171
 21
-1103.770254041571
 31
0.0
  0
INSERT
  5
185
330
181
100
AcDbEntity
  8
_0-2_蟇_豕__3__100__AcDbSymbolTable___70_______1____0__STYLE____5__10__100__AcDbSymbolTableRecord_
100
AcDbBlockReference
  2
-001-VW_EMPTYBALL
 10
1696.211427987108
 20
-1103.770254041571
 30
0.0
 41
5.9996337890625
 42
5.9996337890625
  0
INSERT
  5
186
330
181
100
AcDbEntity
  8
_0-2_蟇_豕__ts
100
AcDbBlockReference
  2
-001-VW_EMPTYBALL
 10
996.2114279871084
 20
-1103.770254041571
 30
0.0
 41
5.9996337890625
 42
5.9996337890625
 50
180.0
  0
TEXT
  5
187
330
181
100
AcDbEntity
  8
_0-2_蟇_豕__
 62
     7
100
AcDbText
 10
1329.468263924608
 20
-1098.770254041571
 30
0.0
 40
22.32421875
  1
700
100
AcDbText
  0
POINT
  5
188
330
181
100
AcDbEntity
  8
_0-3_Defpoints
 62
     7
100
AcDbPoint
 10
1696.211427987108
 20
-957.8986310873727
 30
0.0
  0
POINT
  5
189
330
181
100
AcDbEntity
  8
_0-3_Defpoints
 62
     7
100
AcDbPoint
 10
996.2114279871084
 20
-957.8986310873727
 30
0.0
  0
POINT
  5
18A
330
181
100
AcDbEntity
  8
_0-3_Defpoints
 62
     7
100
AcDbPoint
 10
996.2114279871084
 20
-1103.770254041571
 30
0.0
  0
ENDBLK
  5
18B
330
181
100
AcDbEntity
  8
0
100
AcDbBlockEnd
  0
BLOCK
  5
18C
330
18D
100
AcDbEntity
  8
0
100
AcDbBlockBegin
  2
-022-_D22
 70
     0
 10
0.0
 20
0.0
 30
0.0
  3
-022-_D22
  1

  0
LINE
  5
18E
330
18D
100
AcDbEntity
  8
_0-2_蟇_豕__ts
  6
Continuous
 62
     7
100
AcDbLine
 10
-1366.72650832385
 20
-967.8986310873726
 30
0.0
 11
-1366.72650832385
 21
-1112.0266986367
 31
0.0
  0
LINE
  5
18F
330
18D
100
AcDbEntity
  8
_0-2_蟇_豕__
  6
Continuous
 62
     7
100
AcDbLine
 10
-1666.72650832385
 20
-967.8986310873726
 30
0.0
 11
-1666.72650832385
 21
-1112.0266986367
 31
0.0
  0
LINE
  5
190
330
18D
100
AcDbEntity
  8
_0-2_蟇_豕__ts
  6
Continuous
 62
     7
100
AcDbLine
 10
-1372.726142112912
 20
-1102.0266986367
 30
0.0
 11
-1660.726874534787
 21
-1102.0266986367
 31
0.0
  0
INSERT
  5
191
330
18D
100
AcDbEntity
  8
_0-2_蟇_豕__ts
100
AcDbBlockReference
  2
-001-VW_EMPTYBALL
 10
-1366.72650832385
 20
-1102.0266986367
 30
0.0
 41
5.9996337890625
 42
5.9996337890625
  0
INSERT
  5
192
330
18D
100
AcDbEntity
  8
_0-2_蟇_豕__ts
100
AcDbBlockReference
  2
-001-VW_EMPTYBALL
 10
-1666.72650832385
 20
-1102.0266986367
 30
0.0
 41
5.9996337890625
 42
5.9996337890625
 50
180.0
  0
TEXT
  5
193
330
18D
100
AcDbEntity
  8
_0-2_蟇_豕__ts
 62
     7
100
AcDbText
 10
-1533.46967238635
 20
-1097.0266986367
 30
0.0
 40
22.32421875
  1
300
100
AcDbText
  0
POINT
  5
194
330
18D
100
AcDbEntity
  8
_0-3_Defpoints
 62
     7
100
AcDbPoint
 10
-1366.72650832385
 20
-957.8986310873727
 30
0.0
  0
POINT
  5
195
330
18D
100
AcDbEntity
  8
_0-3_Defpoints
 62
     7
100
AcDbPoint
 10
-1666.72650832385
 20
-957.8986310873727
 30
0.0
  0
POINT
  5
196
330
18D
100
AcDbEntity
  8
_0-3_Defpoints
 62
     7
100
AcDbPoint
 10
-1666.72650832385
 20
-1102.0266986367
 30
0.0
  0
ENDBLK
  5
197
330
18D
100
AcDbEntity
  8
0
100
AcDbBlockEnd
  0
BLOCK
  5
198
330
199
100
AcDbEntity
  8
0
100
AcDbBlockBegin
  2
-023-_D23
 70
     0
 10
0.0
 20
0.0
 30
0.0
  3
-023-_D23
  1

  0
LINE
  5
19A
330
199
100
AcDbEntity
  8
_0-2_蟇_豕__
  6
Continuous
 62
     7
100
AcDbLine
 10
91.2790307941958
 20
-967.8986310873726
 30
0.0
 11
91.27903079419571
 21
-1112.0266986367
 31
0.0
  0
LINE
  5
19B
330
199
100
AcDbEntity
  8
_0-2_蟇_豕__
  6
Continuous
 62
     7
100
AcDbLine
 10
-1366.72650832385
 20
-967.8986310873726
 30
0.0
 11
-1366.72650832385
 21
-1112.0266986367
 31
0.0
  0
LINE
  5
19C
330
199
100
AcDbEntity
  8
_0-2_蟇_豕__ts
  6
Continuous
 62
     7
100
AcDbLine
 10
85.2793970051332
 20
-1102.0266986367
 30
0.0
 11
-1360.726874534787
 21
-1102.0266986367
 31
0.0
  0
INSERT
  5
19D
330
199
100
AcDbEntity
  8
_0-2_蟇_豕__ts
100
AcDbBlockReference
  2
-001-VW_EMPTYBALL
 10
91.27903079419571
 20
-1102.0266986367
 30
0.0
 41
5.9996337890625
 42
5.9996337890625
  0
INSERT
  5
19E
330
199
100
AcDbEntity
  8
_0-2_蟇_豕__
100
AcDbBlockReference
  2
-001-VW_EMPTYBALL
 10
-1366.72650832385
 20
-1102.0266986367
 30
0.0
 41
5.9996337890625
 42
5.9996337890625
 50
180.0
  0
TEXT
  5
19F
330
199
100
AcDbEntity
  8
_0-2_蟇_豕__
 62
     7
100
AcDbText
 10
-660.047957514827
 20
-1097.0266986367
 30
0.0
 40
22.32421875
  1
1458
100
AcDbText
  0
POINT
  5
1A0
330
199
100
AcDbEntity
  8
_0-3_Defpoints
 62
     7
100
AcDbPoint
 10
91.2790307941958
 20
-957.8986310873727
 30
0.0
  0
POINT
  5
1A1
330
199
100
AcDbEntity
  8
_0-3_Defpoints
 62
     7
100
AcDbPoint
 10
-1366.72650832385
 20
-957.8986310873727
 30
0.0
  0
POINT
  5
1A2
330
199
100
AcDbEntity
  8
_0-3_Defpoints
 62
     7
100
AcDbPoint
 10
-1366.72650832385
 20
-1102.0266986367
 30
0.0
  0
ENDBLK
  5
1A3
330
199
100
AcDbEntity
  8
0
100
AcDbBlockEnd
  0
BLOCK
  5
1A4
330
1A5
100
AcDbEntity
  8
0
100
AcDbBlockBegin
  2
-024-_D24
 70
     0
 10
0.0
 20
0.0
 30
0.0
  3
-024-_D24
  1

  0
LINE
  5
1A6
330
1A5
100
AcDbEntity
  8
_0-2_蟇_豕__ts
  6
Continuous
 62
     7
100
AcDbLine
 10
391.2790307941958
 20
-967.8986310873726
 30
0.0
 11
391.2790307941958
 21
-1112.0266986367
 31
0.0
  0
LINE
  5
1A7
330
1A5
100
AcDbEntity
  8
_0-2_蟇_豕__ts
  6
Continuous
 62
     7
100
AcDbLine
 10
91.2790307941958
 20
-967.8986310873726
 30
0.0
 11
91.2790307941958
 21
-1112.0266986367
 31
0.0
  0
LINE
  5
1A8
330
1A5
100
AcDbEntity
  8
_0-2_蟇_豕__ts
  6
Continuous
 62
     7
100
AcDbLine
 10
385.2793970051333
 20
-1102.0266986367
 30
0.0
 11
97.27866458325832
 21
-1102.0266986367
 31
0.0
  0
INSERT
  5
1A9
330
1A5
100
AcDbEntity
  8
_0-2_蟇_豕__ts
100
AcDbBlockReference
  2
-001-VW_EMPTYBALL
 10
391.2790307941958
 20
-1102.0266986367
 30
0.0
 41
5.9996337890625
 42
5.9996337890625
  0
INSERT
  5
1AA
330
1A5
100
AcDbEntity
  8
_0-2_蟇_豕__
100
AcDbBlockReference
  2
-001-VW_EMPTYBALL
 10
91.2790307941958
 20
-1102.0266986367
 30
0.0
 41
5.9996337890625
 42
5.9996337890625
 50
180.0
  0
TEXT
  5
1AB
330
1A5
100
AcDbEntity
  8
_0-2_蟇_豕__
 62
     7
100
AcDbText
 10
224.5358667316958
 20
-1097.0266986367
 30
0.0
 40
22.32421875
  1
300
100
AcDbText
  0
POINT
  5
1AC
330
1A5
100
AcDbEntity
  8
_0-3_Defpoints
 62
     7
100
AcDbPoint
 10
391.2790307941958
 20
-957.8986310873727
 30
0.0
  0
POINT
  5
1AD
330
1A5
100
AcDbEntity
  8
_0-3_Defpoints
 62
     7
100
AcDbPoint
 10
91.2790307941958
 20
-957.8986310873727
 30
0.0
  0
POINT
  5
1AE
330
1A5
100
AcDbEntity
  8
_0-3_Defpoints
 62
     7
100
AcDbPoint
 10
91.2790307941958
 20
-1102.0266986367
 30
0.0
  0
ENDBLK
  5
1AF
330
1A5
100
AcDbEntity
  8
0
100
AcDbBlockEnd
  0
BLOCK
  5
1B0
330
1B1
100
AcDbEntity
  8
0
100
AcDbBlockBegin
  2
-025-_D25
 70
     0
 10
0.0
 20
0.0
 30
0.0
  3
-025-_D25
  1

  0
LINE
  5
1B2
330
1B1
100
AcDbEntity
  8
_0-2_蟇_豕__ts
  6
Continuous
 62
     7
100
AcDbLine
 10
1633.412243777481
 20
-706.6308533095948
 30
0.0
 11
1633.412243777481
 21
-761.3716064069489
 31
0.0
  0
LINE
  5
1B3
330
1B1
100
AcDbEntity
  8
_0-2_蟇_豕__
  6
Continuous
 62
     7
100
AcDbLine
 10
1062.760612196736
 20
-706.6308533095948
 30
0.0
 11
1062.760612196736
 21
-761.3716064069489
 31
0.0
  0
LINE
  5
1B4
330
1B1
100
AcDbEntity
  8
_0-2_蟇_豕__ts
  6
Continuous
 62
     7
100
AcDbLine
 10
1627.412609988419
 20
-751.3716064069488
 30
0.0
 11
1068.760245985798
 21
-751.3716064069488
 31
0.0
  0
INSERT
  5
1B5
330
1B1
100
AcDbEntity
  8
_0-2_蟇_豕__ts
100
AcDbBlockReference
  2
-001-VW_EMPTYBALL
 10
1633.412243777481
 20
-751.3716064069488
 30
0.0
 41
5.9996337890625
 42
5.9996337890625
  0
INSERT
  5
1B6
330
1B1
100
AcDbEntity
  8
_0-2_蟇_豕__
100
AcDbBlockReference
  2
-001-VW_EMPTYBALL
 10
1062.760612196736
 20
-751.3716064069488
 30
0.0
 41
5.9996337890625
 42
5.9996337890625
 50
180.0
  0
TEXT
  5
1B7
330
1B1
100
AcDbEntity
  8
_0-2_蟇_豕__ts
 62
     7
100
AcDbText
 10
1331.343263924608
 20
-746.3716064069489
 30
0.0
 40
22.32421875
  1
571
100
AcDbText
  0
POINT
  5
1B8
330
1B1
100
AcDbEntity
  8
_0-3_Defpoints
 62
     7
100
AcDbPoint
 10
1633.412243777481
 20
-696.6308533095948
 30
0.0
  0
POINT
  5
1B9
330
1B1
100
AcDbEntity
  8
_0-3_Defpoints
 62
     7
100
AcDbPoint
 10
1062.760612196736
 20
-696.6308533095948
 30
0.0
  0
POINT
  5
1BA
330
1B1
100
AcDbEntity
  8
_0-3_Defpoints
 62
     7
100
AcDbPoint
 10
1062.760612196736
 20
-751.3716064069488
 30
0.0
  0
ENDBLK
  5
1BB
330
1B1
100
AcDbEntity
  8
0
100
AcDbBlockEnd
  0
BLOCK
  5
1BC
330
1BD
100
AcDbEntity
  8
0
100
AcDbBlockBegin
  2
-026-_D26
 70
     0
 10
0.0
 20
0.0
 30
0.0
  3
-026-_D26
  1

  0
LINE
  5
1BE
330
1BD
100
AcDbEntity
  8
_0-2_蟇_豕__ts
  6
Continuous
 62
     7
100
AcDbLine
 10
-1481.726484716321
 20
92.01028813988214
 30
0.0
 11
-1481.726484716321
 21
142.9733013633
 31
0.0
  0
LINE
  5
1BF
330
1BD
100
AcDbEntity
  8
_0-2_蟇_豕__ts
  6
Continuous
 62
     7
100
AcDbLine
 10
-1541.72650832385
 20
92.10136891262733
 30
0.0
 11
-1541.72650832385
 21
142.9733013633
 31
0.0
  0
LINE
  5
1C0
330
1BD
100
AcDbEntity
  8
_0-2_蟇_豕__ts
  6
Continuous
 62
     7
100
AcDbLine
 10
-1487.726118505384
 20
132.9733013633
 30
0.0
 11
-1535.726874534787
 21
132.9733013633
 31
0.0
  0
INSERT
  5
1C1
330
1BD
100
AcDbEntity
  8
_0-2_蟇_豕__ts
100
AcDbBlockReference
  2
-001-VW_EMPTYBALL
 10
-1481.726484716321
 20
132.9733013633
 30
0.0
 41
5.9996337890625
 42
5.9996337890625
  0
INSERT
  5
1C2
330
1BD
100
AcDbEntity
  8
_0-2_蟇_豕__ts
100
AcDbBlockReference
  2
-001-VW_EMPTYBALL
 10
-1541.72650832385
 20
132.9733013633
 30
0.0
 41
5.9996337890625
 42
5.9996337890625
 50
180.0
  0
TEXT
  5
1C3
330
1BD
100
AcDbEntity
  8
_0-2_蟇_豕__ts
 62
     7
100
AcDbText
 10
-1522.888605895086
 20
137.9733013633
 30
0.0
 40
22.32421875
  1
60
100
AcDbText
  0
POINT
  5
1C4
330
1BD
100
AcDbEntity
  8
_0-3_Defpoints
 62
     7
100
AcDbPoint
 10
-1481.726484716321
 20
82.01028813988214
 30
0.0
  0
POINT
  5
1C5
330
1BD
100
AcDbEntity
  8
_0-3_Defpoints
 62
     7
100
AcDbPoint
 10
-1541.72650832385
 20
82.10136891262733
 30
0.0
  0
POINT
  5
1C6
330
1BD
100
AcDbEntity
  8
_0-3_Defpoints
 62
     7
100
AcDbPoint
 10
-1541.72650832385
 20
132.9733013633
 30
0.0
  0
ENDBLK
  5
1C7
330
1BD
100
AcDbEntity
  8
0
100
AcDbBlockEnd
  0
BLOCK
  5
1C8
330
1C9
100
AcDbEntity
  8
0
100
AcDbBlockBegin
  2
-027-_D27
 70
     0
 10
0.0
 20
0.0
 30
0.0
  3
-027-_D27
  1

  0
LINE
  5
1CA
330
1C9
100
AcDbEntity
  8
_0-2_蟇_豕__
  6
Continuous
 62
     7
100
AcDbLine
 10
206.2677585547637
 20
92.01028813988214
 30
0.0
 11
206.2677585547638
 21
142.9733013633
 31
0.0
  0
LINE
  5
1CB
330
1C9
100
AcDbEntity
  8
_0-2_蟇_豕__ts
  6
Continuous
 62
     7
100
AcDbLine
 10
-1481.726484716321
 20
92.01028813988214
 30
0.0
 11
-1481.726484716321
 21
142.9733013633
 31
0.0
  0
LINE
  5
1CC
330
1C9
100
AcDbEntity
  8
_0-2_蟇_豕__ts
  6
Continuous
 62
     7
100
AcDbLine
 10
200.2681247657013
 20
132.9733013633
 30
0.0
 11
-1475.726850927259
 21
132.9733013633
 31
0.0
  0
INSERT
  5
1CD
330
1C9
100
AcDbEntity
  8
_0-2_蟇_豕__ts
100
AcDbBlockReference
  2
-001-VW_EMPTYBALL
 10
206.2677585547638
 20
132.9733013633
 30
0.0
 41
5.9996337890625
 42
5.9996337890625
  0
INSERT
  5
1CE
330
1C9
100
AcDbEntity
  8
_0-2_蟇_豕__ts
100
AcDbBlockReference
  2
-001-VW_EMPTYBALL
 10
-1481.726484716321
 20
132.9733013633
 30
0.0
 41
5.9996337890625
 42
5.9996337890625
 50
180.0
  0
TEXT
  5
1CF
330
1C9
100
AcDbEntity
  8
_0-2_蟇_豕__ts
 62
     7
100
AcDbText
 10
-660.0535818307788
 20
137.9733013633
 30
0.0
 40
22.32421875
  1
1688
100
AcDbText
  0
POINT
  5
1D0
330
1C9
100
AcDbEntity
  8
_0-3_Defpoints
 62
     7
100
AcDbPoint
 10
206.2677585547637
 20
82.01028813988214
 30
0.0
  0
POINT
  5
1D1
330
1C9
100
AcDbEntity
  8
_0-3_Defpoints
 62
     7
100
AcDbPoint
 10
-1481.726484716321
 20
82.01028813988214
 30
0.0
  0
POINT
  5
1D2
330
1C9
100
AcDbEntity
  8
_0-3_Defpoints
 62
     7
100
AcDbPoint
 10
-1481.726484716321
 20
132.9733013633
 30
0.0
  0
ENDBLK
  5
1D3
330
1C9
100
AcDbEntity
  8
0
100
AcDbBlockEnd
  0
BLOCK
  5
1D4
330
1D5
100
AcDbEntity
  8
0
100
AcDbBlockBegin
  2
-028-_D28
 70
     0
 10
0.0
 20
0.0
 30
0.0
  3
-028-_D28
  1

  0
LINE
  5
1D6
330
1D5
100
AcDbEntity
  8
_0-2_蟇_豕__ts
  6
Continuous
 62
     7
100
AcDbLine
 10
266.2677585547638
 20
102.1013689126272
 30
0.0
 11
266.2677585547638
 21
142.9733013633
 31
0.0
  0
LINE
  5
1D7
330
1D5
100
AcDbEntity
  8
_0-2_蟇_豕__
  6
Continuous
 62
     7
100
AcDbLine
 10
206.2677585547637
 20
92.01028813988214
 30
0.0
 11
206.2677585547637
 21
142.9733013633
 31
0.0
  0
LINE
  5
1D8
330
1D5
100
AcDbEntity
  8
_0-2_蟇_豕__ts
  6
Continuous
 62
     7
100
AcDbLine
 10
260.2681247657013
 20
132.9733013633
 30
0.0
 11
212.2673923438262
 21
132.9733013633
 31
0.0
  0
INSERT
  5
1D9
330
1D5
100
AcDbEntity
  8
_0-2_蟇_豕__ts
100
AcDbBlockReference
  2
-001-VW_EMPTYBALL
 10
266.2677585547638
 20
132.9733013633
 30
0.0
 41
5.9996337890625
 42
5.9996337890625
  0
INSERT
  5
1DA
330
1D5
100
AcDbEntity
  8
_0-2_蟇_豕__ts
100
AcDbBlockReference
  2
-001-VW_EMPTYBALL
 10
206.2677585547637
 20
132.9733013633
 30
0.0
 41
5.9996337890625
 42
5.9996337890625
 50
180.0
  0
TEXT
  5
1DB
330
1D5
100
AcDbEntity
  8
_0-2_蟇_豕__ts
 62
     7
100
AcDbText
 10
225.1056491797638
 20
137.9733013633
 30
0.0
 40
22.32421875
  1
60
100
AcDbText
  0
POINT
  5
1DC
330
1D5
100
AcDbEntity
  8
_0-3_Defpoints
 62
     7
100
AcDbPoint
 10
266.2677585547638
 20
92.10136891262719
 30
0.0
  0
POINT
  5
1DD
330
1D5
100
AcDbEntity
  8
_0-3_Defpoints
 62
     7
100
AcDbPoint
 10
206.2677585547637
 20
82.01028813988214
 30
0.0
  0
POINT
  5
1DE
330
1D5
100
AcDbEntity
  8
_0-3_Defpoints
 62
     7
100
AcDbPoint
 10
206.2677585547637
 20
132.9733013633
 30
0.0
  0
ENDBLK
  5
1DF
330
1D5
100
AcDbEntity
  8
0
100
AcDbBlockEnd
  0
BLOCK
  5
1E0
330
1E1
100
AcDbEntity
  8
0
100
AcDbBlockBegin
  2
-029-繧_繝_繝_繝__6-1
 70
     0
 10
0.0
 20
0.0
 30
0.0
  3
-029-繧_繝_繝_繝__6-1
  1

  0
ARC
  5
1E2
330
1E1
100
AcDbEntity
  8
_0-1_荳_闊_
  6
繝_繧_繝_繧_繧_繝__24
 62
     7
100
AcDbCircle
 10
-1509.774225760201
 20
729.9330589898771
 30
0.0
 40
7.5
100
AcDbArc
 50
270.0
 51
90.0
  0
LINE
  5
1E3
330
1E1
100
AcDbEntity
  8
_0-1_荳_闊_
  6
Continuous
 62
     7
100
AcDbLine
 10
-1509.774225760201
 20
722.433058989877
 30
0.0
 11
-1514.774225760201
 21
722.433058989877
 31
0.0
  0
LINE
  5
1E4
330
1E1
100
AcDbEntity
  8
_0-1_荳_闊_
  6
Continuous
 62
     7
100
AcDbLine
 10
-1509.774225760201
 20
737.433058989877
 30
0.0
 11
-1514.774225760201
 21
737.433058989877
 31
0.0
  0
ARC
  5
1E5
330
1E1
100
AcDbEntity
  8
_0-1_荳_闊_
  6
繝_繧_繝_繧_繧_繝__24
 62
     7
100
AcDbCircle
 10
-1514.774225760201
 20
729.9330589898771
 30
0.0
 40
7.5
100
AcDbArc
 50
90.0
 51
270.0
  0
ENDBLK
  5
1E6
330
1E1
100
AcDbEntity
  8
0
100
AcDbBlockEnd
  0
BLOCK
  5
1E7
330
1E8
100
AcDbEntity
  8
0
100
AcDbBlockBegin
  2
-030-繧_繝_繝_繝__7-1
 70
     0
 10
0.0
 20
0.0
 30
0.0
  3
-030-繧_繝_繝_繝__7-1
  1

  0
ARC
  5
1E9
330
1E8
100
AcDbEntity
  8
_0-1_荳_闊_
  6
繝_繧_繝_繧_繧_繝__24
 62
     7
100
AcDbCircle
 10
-1509.774225760201
 20
1299.933058989877
 30
0.0
 40
7.5
100
AcDbArc
 50
270.0
 51
90.0
  0
LINE
  5
1EA
330
1E8
100
AcDbEntity
  8
_0-1_荳_闊_
  6
Continuous
 62
     7
100
AcDbLine
 10
-1509.774225760201
 20
1292.433058989877
 30
0.0
 11
-1514.774225760201
 21
1292.433058989877
 31
0.0
  0
LINE
  5
1EB
330
1E8
100
AcDbEntity
  8
_0-1_荳_闊_
  6
Continuous
 62
     7
100
AcDbLine
 10
-1509.774225760201
 20
1307.433058989877
 30
0.0
 11
-1514.774225760201
 21
1307.433058989877
 31
0.0
  0
ARC
  5
1EC
330
1E8
100
AcDbEntity
  8
_0-1_荳_闊_
  6
繝_繧_繝_繧_繧_繝__24
 62
     7
100
AcDbCircle
 10
-1514.774225760201
 20
1299.933058989877
 30
0.0
 40
7.5
100
AcDbArc
 50
90.0
 51
270.0
  0
ENDBLK
  5
1ED
330
1E8
100
AcDbEntity
  8
0
100
AcDbBlockEnd
  0
BLOCK
  5
1EE
330
1EF
100
AcDbEntity
  8
0
100
AcDbBlockBegin
  2
-031-繧_繝_繝_繝__8-1
 70
     0
 10
0.0
 20
0.0
 30
0.0
  3
-031-繧_繝_繝_繝__8-1
  1

  0
ARC
  5
1F0
330
1EF
100
AcDbEntity
  8
_0-1_荳_闊_
  6
繝_繧_繝_繧_繧_繝__24
 62
     7
100
AcDbCircle
 10
230.7985638168791
 20
1299.933058989877
 30
0.0
 40
7.5
100
AcDbArc
 50
90.0
 51
270.0
  0
LINE
  5
1F1
330
1EF
100
AcDbEntity
  8
_0-1_荳_闊_
  6
Continuous
 62
     7
100
AcDbLine
 10
230.7985638168791
 20
1292.433058989877
 30
0.0
 11
235.7985638168791
 21
1292.433058989877
 31
0.0
  0
LINE
  5
1F2
330
1EF
100
AcDbEntity
  8
_0-1_荳_闊_
  6
Continuous
 62
     7
100
AcDbLine
 10
230.7985638168791
 20
1307.433058989877
 30
0.0
 11
235.7985638168791
 21
1307.433058989877
 31
0.0
  0
ARC
  5
1F3
330
1EF
100
AcDbEntity
  8
_0-1_荳_闊_
  6
繝_繧_繝_繧_繧_繝__24
 62
     7
100
AcDbCircle
 10
235.7985638168791
 20
1299.933058989877
 30
0.0
 40
7.5
100
AcDbArc
 50
270.0
 51
90.0
  0
ENDBLK
  5
1F4
330
1EF
100
AcDbEntity
  8
0
100
AcDbBlockEnd
  0
BLOCK
  5
1F5
330
1F6
100
AcDbEntity
  8
0
100
AcDbBlockBegin
  2
-032-繧_繝_繝_繝__10-1
 70
     0
 10
0.0
 20
0.0
 30
0.0
  3
-032-繧_繝_繝_繝__10-1
  1

  0
LINE
  5
1F7
330
1F6
100
AcDbEntity
  8
_0-1_荳_闊_
  6
Continuous
 62
     7
100
AcDbLine
 10
-1522.484964410968
 20
-646.8235873749038
 30
0.0
 11
-1504.484964410967
 21
-646.8235873749038
 31
0.0
  0
LINE
  5
1F8
330
1F6
100
AcDbEntity
  8
_0-1_荳_闊_
  6
Continuous
 62
     7
100
AcDbLine
 10
-1504.484964410967
 20
-646.8235873749038
 30
0.0
 11
-1504.484964410967
 21
-654.8235873749036
 31
0.0
  0
LINE
  5
1F9
330
1F6
100
AcDbEntity
  8
_0-1_荳_闊_
  6
Continuous
 62
     7
100
AcDbLine
 10
-1504.484964410967
 20
-654.8235873749036
 30
0.0
 11
-1522.484964410968
 21
-654.8235873749036
 31
0.0
  0
LINE
  5
1FA
330
1F6
100
AcDbEntity
  8
_0-1_荳_闊_
  6
Continuous
 62
     7
100
AcDbLine
 10
-1522.484964410968
 20
-654.8235873749036
 30
0.0
 11
-1522.484964410968
 21
-646.8235873749038
 31
0.0
  0
LINE
  5
1FB
330
1F6
100
AcDbEntity
  8
_0-1_荳_闊_
  6
Continuous
 62
     7
100
AcDbLine
 10
-1519.310761747881
 20
-660.8235873749036
 30
0.0
 11
-1507.330899991422
 21
-660.8235873749036
 31
0.0
  0
LINE
  5
1FC
330
1F6
100
AcDbEntity
  8
_0-1_荳_闊_
  6
Continuous
 62
     7
100
AcDbLine
 10
-1507.330899991422
 20
-660.8235873749036
 30
0.0
 11
-1507.330899991422
 21
-695.8235873749035
 31
0.0
  0
LINE
  5
1FD
330
1F6
100
AcDbEntity
  8
_0-1_荳_闊_
  6
Continuous
 62
     7
100
AcDbLine
 10
-1507.330899991422
 20
-695.8235873749035
 30
0.0
 11
-1519.310761747881
 21
-695.8235873749035
 31
0.0
  0
LINE
  5
1FE
330
1F6
100
AcDbEntity
  8
_0-1_荳_闊_
  6
Continuous
 62
     7
100
AcDbLine
 10
-1519.310761747881
 20
-695.8235873749035
 30
0.0
 11
-1519.310761747881
 21
-660.8235873749036
 31
0.0
  0
LINE
  5
1FF
330
1F6
100
AcDbEntity
  8
_0-1_荳_闊_
  6
繝_繧_繝_繧_繧_繝__9
 62
     7
100
AcDbLine
 10
-1513.484964410968
 20
-646.8235873749038
 30
0.0
 11
-1513.315525349204
 21
-695.8235873749035
 31
0.0
  0
ENDBLK
  5
200
330
1F6
100
AcDbEntity
  8
0
100
AcDbBlockEnd
  0
BLOCK
  5
201
330
202
100
AcDbEntity
  8
0
100
AcDbBlockBegin
  2
-033-繧_繝_繝_繝__11-1
 70
     0
 10
0.0
 20
0.0
 30
0.0
  3
-033-繧_繝_繝_繝__11-1
  1

  0
LINE
  5
203
330
202
100
AcDbEntity
  8
_0-1_荳_闊_
  6
Continuous
 62
     7
100
AcDbLine
 10
1051.715969195609
 20
-646.8235873749038
 30
0.0
 11
1069.715969195609
 21
-646.8235873749038
 31
0.0
  0
LINE
  5
204
330
202
100
AcDbEntity
  8
_0-1_荳_闊_
  6
Continuous
 62
     7
100
AcDbLine
 10
1069.715969195609
 20
-646.8235873749038
 30
0.0
 11
1069.715969195609
 21
-654.8235873749036
 31
0.0
  0
LINE
  5
205
330
202
100
AcDbEntity
  8
_0-1_荳_闊_
  6
Continuous
 62
     7
100
AcDbLine
 10
1069.715969195609
 20
-654.8235873749036
 30
0.0
 11
1051.715969195609
 21
-654.8235873749036
 31
0.0
  0
LINE
  5
206
330
202
100
AcDbEntity
  8
_0-1_荳_闊_
  6
Continuous
 62
     7
100
AcDbLine
 10
1051.715969195609
 20
-654.8235873749036
 30
0.0
 11
1051.715969195609
 21
-646.8235873749038
 31
0.0
  0
LINE
  5
207
330
202
100
AcDbEntity
  8
_0-1_荳_闊_
  6
Continuous
 62
     7
100
AcDbLine
 10
1054.890171858696
 20
-660.8235873749036
 30
0.0
 11
1066.870033615155
 21
-660.8235873749036
 31
0.0
  0
LINE
  5
208
330
202
100
AcDbEntity
  8
_0-1_荳_闊_
  6
Continuous
 62
     7
100
AcDbLine
 10
1066.870033615155
 20
-660.8235873749036
 30
0.0
 11
1066.870033615155
 21
-695.8235873749035
 31
0.0
  0
LINE
  5
209
330
202
100
AcDbEntity
  8
_0-1_荳_闊_
  6
Continuous
 62
     7
100
AcDbLine
 10
1066.870033615155
 20
-695.8235873749035
 30
0.0
 11
1054.890171858696
 21
-695.8235873749035
 31
0.0
  0
LINE
  5
20A
330
202
100
AcDbEntity
  8
_0-1_荳_闊_
  6
Continuous
 62
     7
100
AcDbLine
 10
1054.890171858696
 20
-695.8235873749035
 30
0.0
 11
1054.890171858696
 21
-660.8235873749036
 31
0.0
  0
LINE
  5
20B
330
202
100
AcDbEntity
  8
_0-1_荳_闊_
  6
繝_繧_繝_繧_繧_繝__9
 62
     7
100
AcDbLine
 10
1060.71596919561
 20
-646.8235873749038
 30
0.0
 11
1060.885408257374
 21
-695.8235873749035
 31
0.0
  0
ENDBLK
  5
20C
330
202
100
AcDbEntity
  8
0
100
AcDbBlockEnd
  0
BLOCK
  5
20D
330
20E
100
AcDbEntity
  8
0
100
AcDbBlockBegin
  2
-034-繧_繝_繝_繝__12-1
 70
     0
 10
0.0
 20
0.0
 30
0.0
  3
-034-繧_繝_繝_繝__12-1
  1

  0
LINE
  5
20F
330
20E
100
AcDbEntity
  8
_0-1_荳_闊_
  6
Continuous
 62
     7
100
AcDbLine
 10
225.5036663479294
 20
-646.8235873749038
 30
0.0
 11
243.5036663479294
 21
-646.8235873749038
 31
0.0
  0
LINE
  5
210
330
20E
100
AcDbEntity
  8
_0-1_荳_闊_
  6
Continuous
 62
     7
100
AcDbLine
 10
243.5036663479294
 20
-646.8235873749038
 30
0.0
 11
243.5036663479294
 21
-654.8235873749036
 31
0.0
  0
LINE
  5
211
330
20E
100
AcDbEntity
  8
_0-1_荳_闊_
  6
Continuous
 62
     7
100
AcDbLine
 10
243.5036663479294
 20
-654.8235873749036
 30
0.0
 11
225.5036663479294
 21
-654.8235873749036
 31
0.0
  0
LINE
  5
212
330
20E
100
AcDbEntity
  8
_0-1_荳_闊_
  6
Continuous
 62
     7
100
AcDbLine
 10
225.5036663479294
 20
-654.8235873749036
 30
0.0
 11
225.5036663479294
 21
-646.8235873749038
 31
0.0
  0
LINE
  5
213
330
20E
100
AcDbEntity
  8
_0-1_荳_闊_
  6
Continuous
 62
     7
100
AcDbLine
 10
228.3496019283833
 20
-660.8235873749036
 30
0.0
 11
240.3294636848426
 21
-660.8235873749036
 31
0.0
  0
LINE
  5
214
330
20E
100
AcDbEntity
  8
_0-1_荳_闊_
  6
Continuous
 62
     7
100
AcDbLine
 10
240.3294636848426
 20
-660.8235873749036
 30
0.0
 11
240.3294636848426
 21
-695.8235873749035
 31
0.0
  0
LINE
  5
215
330
20E
100
AcDbEntity
  8
_0-1_荳_闊_
  6
Continuous
 62
     7
100
AcDbLine
 10
240.3294636848426
 20
-695.8235873749035
 30
0.0
 11
228.3496019283833
 21
-695.8235873749035
 31
0.0
  0
LINE
  5
216
330
20E
100
AcDbEntity
  8
_0-1_荳_闊_
  6
Continuous
 62
     7
100
AcDbLine
 10
228.3496019283833
 20
-695.8235873749035
 30
0.0
 11
228.3496019283833
 21
-660.8235873749036
 31
0.0
  0
LINE
  5
217
330
20E
100
AcDbEntity
  8
_0-1_荳_闊_
  6
繝_繧_繝_繧_繧_繝__9
 62
     7
100
AcDbLine
 10
234.503666347929
 20
-646.8235873749038
 30
0.0
 11
234.3342272861649
 21
-695.8235873749035
 31
0.0
  0
ENDBLK
  5
218
330
20E
100
AcDbEntity
  8
0
100
AcDbBlockEnd
  0
BLOCK
  5
219
330
21A
100
AcDbEntity
  8
0
100
AcDbBlockBegin
  2
-035-繧_繝_繝_繝__13-1
 70
     0
 10
0.0
 20
0.0
 30
0.0
  3
-035-繧_繝_繝_繝__13-1
  1

  0
LINE
  5
21B
330
21A
100
AcDbEntity
  8
_0-1_荳_闊_
  6
Continuous
 62
     7
100
AcDbLine
 10
1622.367600776355
 20
-646.8235873749038
 30
0.0
 11
1640.367600776355
 21
-646.8235873749038
 31
0.0
  0
LINE
  5
21C
330
21A
100
AcDbEntity
  8
_0-1_荳_闊_
  6
Continuous
 62
     7
100
AcDbLine
 10
1640.367600776355
 20
-646.8235873749038
 30
0.0
 11
1640.367600776355
 21
-654.8235873749036
 31
0.0
  0
LINE
  5
21D
330
21A
100
AcDbEntity
  8
_0-1_荳_闊_
  6
Continuous
 62
     7
100
AcDbLine
 10
1640.367600776355
 20
-654.8235873749036
 30
0.0
 11
1622.367600776355
 21
-654.8235873749036
 31
0.0
  0
LINE
  5
21E
330
21A
100
AcDbEntity
  8
_0-1_荳_闊_
  6
Continuous
 62
     7
100
AcDbLine
 10
1622.367600776355
 20
-654.8235873749036
 30
0.0
 11
1622.367600776355
 21
-646.8235873749038
 31
0.0
  0
LINE
  5
21F
330
21A
100
AcDbEntity
  8
_0-1_荳_闊_
  6
Continuous
 62
     7
100
AcDbLine
 10
1625.541803439442
 20
-660.8235873749036
 30
0.0
 11
1637.521665195901
 21
-660.8235873749036
 31
0.0
  0
LINE
  5
220
330
21A
100
AcDbEntity
  8
_0-1_荳_闊_
  6
Continuous
 62
     7
100
AcDbLine
 10
1637.521665195901
 20
-660.8235873749036
 30
0.0
 11
1637.521665195901
 21
-695.8235873749035
 31
0.0
  0
LINE
  5
221
330
21A
100
AcDbEntity
  8
_0-1_荳_闊_
  6
Continuous
 62
     7
100
AcDbLine
 10
1637.521665195901
 20
-695.8235873749035
 30
0.0
 11
1625.541803439442
 21
-695.8235873749035
 31
0.0
  0
LINE
  5
222
330
21A
100
AcDbEntity
  8
_0-1_荳_闊_
  6
Continuous
 62
     7
100
AcDbLine
 10
1625.541803439442
 20
-695.8235873749035
 30
0.0
 11
1625.541803439442
 21
-660.8235873749036
 31
0.0
  0
LINE
  5
223
330
21A
100
AcDbEntity
  8
_0-1_荳_闊_
  6
繝_繧_繝_繧_繧_繝__9
 62
     7
100
AcDbLine
 10
1631.367600776355
 20
-646.8235873749038
 30
0.0
 11
1631.537039838119
 21
-695.8235873749035
 31
0.0
  0
ENDBLK
  5
224
330
21A
100
AcDbEntity
  8
0
100
AcDbBlockEnd
  0
BLOCK
  5
225
330
226
100
AcDbEntity
  8
0
100
AcDbBlockBegin
  2
-036-繧_繝_繝_繝__14-1
 70
     0
 10
0.0
 20
0.0
 30
0.0
  3
-036-繧_繝_繝_繝__14-1
  1

  0
LINE
  5
227
330
226
100
AcDbEntity
  8
_0-1_荳_闊_
  6
繝_繧_繝_繧_繧_繝__24
 62
     7
100
AcDbLine
 10
1531.735622511196
 20
-314.7061782192685
 30
0.0
 11
1085.411008983323
 21
-293.6738796308708
 31
0.0
  0
LINE
  5
228
330
226
100
AcDbEntity
  8
_0-1_荳_闊_
  6
繝_繧_繝_繧_繧_繝__24
 62
     7
100
AcDbLine
 10
1104.369236380991
 20
-288.2313558954243
 30
0.0
 11
1530.832429951849
 21
-308.327718390986
 31
0.0
  0
LINE
  5
229
330
226
100
AcDbEntity
  8
_0-1_荳_闊_
  6
繝_繧_繝_繧_繧_繝__24
 62
     7
100
AcDbLine
 10
1621.029131943429
 20
35.41936433631669
 30
0.0
 11
1530.832429951849
 21
-308.327718390986
 31
0.0
  0
LINE
  5
22A
330
226
100
AcDbEntity
  8
_0-1_荳_闊_
  6
繝_繧_繝_繧_繧_繝__24
 62
     7
100
AcDbLine
 10
1626.198251639734
 20
31.47889100445153
 30
0.0
 11
1536.430461783543
 21
-310.6337285475139
 31
0.0
  0
LINE
  5
22B
330
226
100
AcDbEntity
  8
_0-1_荳_闊_
  6
繝_繧_繝_繧_繧_繝__24
 62
     7
100
AcDbLine
 10
1628.006533727822
 20
62.01947456802745
 30
0.0
 11
1647.352068441793
 21
56.94500054301549
 31
0.0
  0
LINE
  5
22C
330
226
100
AcDbEntity
  8
_0-1_荳_闊_
  6
繝_繧_繝_繧_繧_繝__24
 62
     7
100
AcDbLine
 10
1647.352068441793
 20
56.94500054301549
 30
0.0
 11
1639.740357404275
 21
27.92669847205813
 31
0.0
  0
LINE
  5
22D
330
226
100
AcDbEntity
  8
_0-1_荳_闊_
  6
繝_繧_繝_繧_繧_繝__24
 62
     7
100
AcDbLine
 10
1639.740357404275
 20
27.92669847205813
 30
0.0
 11
1620.394822690304
 21
33.00117249707009
 31
0.0
  0
LINE
  5
22E
330
226
100
AcDbEntity
  8
_0-1_荳_闊_
  6
繝_繧_繝_繧_繧_繝__24
 62
     7
100
AcDbLine
 10
1620.394822690304
 20
33.00117249707009
 30
0.0
 11
1628.006533727822
 21
62.01947456802745
 31
0.0
  0
ARC
  5
22F
330
226
100
AcDbEntity
  8
_0-1_荳_闊_
  6
繝_繧_繝_繧_繧_繝__24
 62
     7
100
AcDbCircle
 10
1531.594179319972
 20
-309.3647242399745
 30
0.0
 40
4.999999999999979
100
AcDbArc
 50
267.3020283829604
 51
345.2974578157207
  0
LINE
  5
230
330
226
100
AcDbEntity
  8
_0-1_荳_闊_
  6
繝_繧_繝_繧_繧_繝__24
 62
     7
100
AcDbLine
 10
1083.90450423953
 20
-317.3002803694748
 30
0.0
 11
1063.926673399595
 21
-316.3588586090818
 31
0.0
  0
LINE
  5
231
330
226
100
AcDbEntity
  8
_0-1_荳_闊_
  6
繝_繧_繝_繧_繧_繝__24
 62
     7
100
AcDbLine
 10
1063.926673399595
 20
-316.3588586090818
 30
0.0
 11
1065.338806040185
 21
-286.3921123491793
 31
0.0
  0
LINE
  5
232
330
226
100
AcDbEntity
  8
_0-1_荳_闊_
  6
繝_繧_繝_繧_繧_繝__24
 62
     7
100
AcDbLine
 10
1065.338806040185
 20
-286.3921123491793
 30
0.0
 11
1085.31663688012
 21
-287.3335341095723
 31
0.0
  0
LINE
  5
233
330
226
100
AcDbEntity
  8
_0-1_荳_闊_
  6
繝_繧_繝_繧_繧_繝__24
 62
     7
100
AcDbLine
 10
1085.31663688012
 20
-287.3335341095723
 30
0.0
 11
1083.90450423953
 21
-317.3002803694748
 31
0.0
  0
ENDBLK
  5
234
330
226
100
AcDbEntity
  8
0
100
AcDbBlockEnd
  0
BLOCK
  5
235
330
236
100
AcDbEntity
  8
0
100
AcDbBlockBegin
  2
-037-繧_繝_繝_繝__15-1
 70
     0
 10
0.0
 20
0.0
 30
0.0
  3
-037-繧_繝_繝_繝__15-1
  1

  0
LINE
  5
237
330
236
100
AcDbEntity
  8
_0-1_荳_闊_
  6
繝_繧_繝_繧_繧_繝__24
 62
     7
100
AcDbLine
 10
1573.857639008326
 20
13.27397472879258
 30
0.0
 11
1591.628391649202
 21
80.98069781134009
 31
0.0
  0
LINE
  5
238
330
236
100
AcDbEntity
  8
_0-1_荳_闊_
  6
繝_繧_繝_繧_繧_繝__24
 62
     7
100
AcDbLine
 10
1591.628391649202
 20
80.98069781134009
 30
0.0
 11
1630.317947696372
 21
70.82598201655336
 31
0.0
  0
LINE
  5
239
330
236
100
AcDbEntity
  8
_0-1_荳_闊_
  6
繝_繧_繝_繧_繧_繝__24
 62
     7
100
AcDbLine
 10
1630.317947696372
 20
70.82598201655336
 30
0.0
 11
1612.547195055496
 21
3.119258934005854
 31
0.0
  0
LINE
  5
23A
330
236
100
AcDbEntity
  8
_0-1_荳_闊_
  6
繝_繧_繝_繧_繧_繝__24
 62
     7
100
AcDbLine
 10
1612.547195055496
 20
3.119258934005854
 30
0.0
 11
1573.857639008326
 21
13.27397472879258
 31
0.0
  0
LINE
  5
23B
330
236
100
AcDbEntity
  8
_0-1_荳_闊_
  6
繝_繧_繝_繧_繧_繝__24
 62
     7
100
AcDbLine
 10
1554.82407591609
 20
-59.2706801061609
 30
0.0
 11
1572.594828556967
 21
8.436042976386618
 31
0.0
  0
LINE
  5
23C
330
236
100
AcDbEntity
  8
_0-1_荳_闊_
  6
繝_繧_繝_繧_繧_繝__24
 62
     7
100
AcDbLine
 10
1572.594828556967
 20
8.436042976386618
 30
0.0
 11
1611.284384604137
 21
-1.718672818400108
 31
0.0
  0
LINE
  5
23D
330
236
100
AcDbEntity
  8
_0-1_荳_闊_
  6
繝_繧_繝_繧_繧_繝__24
 62
     7
100
AcDbLine
 10
1611.284384604137
 20
-1.718672818400108
 30
0.0
 11
1593.51363196326
 21
-69.42539590094762
 31
0.0
  0
LINE
  5
23E
330
236
100
AcDbEntity
  8
_0-1_荳_闊_
  6
繝_繧_繝_繧_繧_繝__24
 62
     7
100
AcDbLine
 10
1593.51363196326
 20
-69.42539590094762
 30
0.0
 11
1554.82407591609
 21
-59.2706801061609
 31
0.0
  0
LINE
  5
23F
330
236
100
AcDbEntity
  8
_0-1_荳_闊_
  6
繝_繧_繝_繧_繧_繝__24
 62
     7
100
AcDbLine
 10
1535.530115905995
 20
-132.780836595784
 30
0.0
 11
1553.300868546872
 21
-65.07411351323646
 31
0.0
  0
LINE
  5
240
330
236
100
AcDbEntity
  8
_0-1_荳_闊_
  6
繝_繧_繝_繧_繧_繝__24
 62
     7
100
AcDbLine
 10
1553.300868546872
 20
-65.07411351323646
 30
0.0
 11
1591.990424594042
 21
-75.22882930802319
 31
0.0
  0
LINE
  5
241
330
236
100
AcDbEntity
  8
_0-1_荳_闊_
  6
繝_繧_繝_繧_繧_繝__24
 62
     7
100
AcDbLine
 10
1591.990424594042
 20
-75.22882930802319
 30
0.0
 11
1574.219671953165
 21
-142.9355523905707
 31
0.0
  0
LINE
  5
242
330
236
100
AcDbEntity
  8
_0-1_荳_闊_
  6
繝_繧_繝_繧_繧_繝__24
 62
     7
100
AcDbLine
 10
1574.219671953165
 20
-142.9355523905707
 30
0.0
 11
1535.530115905995
 21
-132.780836595784
 31
0.0
  0
LINE
  5
243
330
236
100
AcDbEntity
  8
_0-1_荳_闊_
  6
繝_繧_繝_繧_繧_繝__24
 62
     7
100
AcDbLine
 10
1516.493260840735
 20
-205.3246095966501
 30
0.0
 11
1534.264013481611
 21
-137.6178865141026
 31
0.0
  0
LINE
  5
244
330
236
100
AcDbEntity
  8
_0-1_荳_闊_
  6
繝_繧_繝_繧_繧_繝__24
 62
     7
100
AcDbLine
 10
1534.264013481611
 20
-137.6178865141026
 30
0.0
 11
1572.953569528781
 21
-147.7726023088893
 31
0.0
  0
LINE
  5
245
330
236
100
AcDbEntity
  8
_0-1_荳_闊_
  6
繝_繧_繝_繧_繧_繝__24
 62
     7
100
AcDbLine
 10
1572.953569528781
 20
-147.7726023088893
 30
0.0
 11
1555.182816887905
 21
-215.4793253914368
 31
0.0
  0
LINE
  5
246
330
236
100
AcDbEntity
  8
_0-1_荳_闊_
  6
繝_繧_繝_繧_繧_繝__24
 62
     7
100
AcDbLine
 10
1555.182816887905
 20
-215.4793253914368
 30
0.0
 11
1516.493260840735
 21
-205.3246095966501
 31
0.0
  0
ENDBLK
  5
247
330
236
100
AcDbEntity
  8
0
100
AcDbBlockEnd
  0
BLOCK
  5
248
330
249
100
AcDbEntity
  8
0
100
AcDbBlockBegin
  2
-038-繧_繝_繝_繝__16-1
 70
     0
 10
0.0
 20
0.0
 30
0.0
  3
-038-繧_繝_繝_繝__16-1
  1

  0
LINE
  5
24A
330
249
100
AcDbEntity
  8
_0-1_荳_闊_
  6
繝_繧_繝_繧_繧_繝__24
 62
     7
100
AcDbLine
 10
1352.843850199325
 20
-259.8231144026566
 30
0.0
 11
1422.766533848514
 21
-263.1122345426677
 31
0.0
  0
LINE
  5
24B
330
249
100
AcDbEntity
  8
_0-1_荳_闊_
  6
繝_繧_繝_繧_繧_繝__24
 62
     7
100
AcDbLine
 10
1422.766533848514
 20
-263.1122345426677
 30
0.0
 11
1420.887036625651
 21
-303.0680537707757
 31
0.0
  0
LINE
  5
24C
330
249
100
AcDbEntity
  8
_0-1_荳_闊_
  6
繝_繧_繝_繧_繧_繝__24
 62
     7
100
AcDbLine
 10
1420.887036625651
 20
-303.0680537707757
 30
0.0
 11
1350.964352976461
 21
-299.7789336307646
 31
0.0
  0
LINE
  5
24D
330
249
100
AcDbEntity
  8
_0-1_荳_闊_
  6
繝_繧_繝_繧_繧_繝__24
 62
     7
100
AcDbLine
 10
1350.964352976461
 20
-299.7789336307646
 30
0.0
 11
1352.843850199325
 21
-259.8231144026566
 31
0.0
  0
LINE
  5
24E
330
249
100
AcDbEntity
  8
_0-1_荳_闊_
  6
繝_繧_繝_繧_繧_繝__24
 62
     7
100
AcDbLine
 10
1277.926685207916
 20
-256.2991407672357
 30
0.0
 11
1347.849368857105
 21
-259.5882609072468
 31
0.0
  0
LINE
  5
24F
330
249
100
AcDbEntity
  8
_0-1_荳_闊_
  6
繝_繧_繝_繧_繧_繝__24
 62
     7
100
AcDbLine
 10
1347.849368857105
 20
-259.5882609072468
 30
0.0
 11
1345.969871634242
 21
-299.5440801353548
 31
0.0
  0
LINE
  5
250
330
249
100
AcDbEntity
  8
_0-1_荳_闊_
  6
繝_繧_繝_繧_繧_繝__24
 62
     7
100
AcDbLine
 10
1345.969871634242
 20
-299.5440801353548
 30
0.0
 11
1276.047187985053
 21
-296.2549599953437
 31
0.0
  0
LINE
  5
251
330
249
100
AcDbEntity
  8
_0-1_荳_闊_
  6
繝_繧_繝_繧_繧_繝__24
 62
     7
100
AcDbLine
 10
1276.047187985053
 20
-296.2549599953437
 30
0.0
 11
1277.926685207916
 21
-256.2991407672357
 31
0.0
  0
LINE
  5
252
330
249
100
AcDbEntity
  8
_0-1_荳_闊_
  6
繝_繧_繝_繧_繧_繝__24
 62
     7
100
AcDbLine
 10
1203.009520216508
 20
-252.7751671318146
 30
0.0
 11
1272.932203865697
 21
-256.0642872718257
 31
0.0
  0
LINE
  5
253
330
249
100
AcDbEntity
  8
_0-1_荳_闊_
  6
繝_繧_繝_繧_繧_繝__24
 62
     7
100
AcDbLine
 10
1272.932203865697
 20
-256.0642872718257
 30
0.0
 11
1271.052706642834
 21
-296.0201064999338
 31
0.0
  0
LINE
  5
254
330
249
100
AcDbEntity
  8
_0-1_荳_闊_
  6
繝_繧_繝_繧_繧_繝__24
 62
     7
100
AcDbLine
 10
1271.052706642834
 20
-296.0201064999338
 30
0.0
 11
1201.130022993644
 21
-292.7309863599227
 31
0.0
  0
LINE
  5
255
330
249
100
AcDbEntity
  8
_0-1_荳_闊_
  6
繝_繧_繝_繧_繧_繝__24
 62
     7
100
AcDbLine
 10
1201.130022993644
 20
-292.7309863599227
 30
0.0
 11
1203.009520216508
 21
-252.7751671318146
 31
0.0
  0
LINE
  5
256
330
249
100
AcDbEntity
  8
_0-1_荳_闊_
  6
繝_繧_繝_繧_繧_繝__24
 62
     7
100
AcDbLine
 10
1128.092355225099
 20
-249.2511934963932
 30
0.0
 11
1198.015038874288
 21
-252.5403136364043
 31
0.0
  0
LINE
  5
257
330
249
100
AcDbEntity
  8
_0-1_荳_闊_
  6
繝_繧_繝_繧_繧_繝__24
 62
     7
100
AcDbLine
 10
1198.015038874288
 20
-252.5403136364043
 30
0.0
 11
1196.135541651425
 21
-292.4961328645124
 31
0.0
  0
LINE
  5
258
330
249
100
AcDbEntity
  8
_0-1_荳_闊_
  6
繝_繧_繝_繧_繧_繝__24
 62
     7
100
AcDbLine
 10
1196.135541651425
 20
-292.4961328645124
 30
0.0
 11
1126.212858002236
 21
-289.2070127245013
 31
0.0
  0
LINE
  5
259
330
249
100
AcDbEntity
  8
_0-1_荳_闊_
  6
繝_繧_繝_繧_繧_繝__24
 62
     7
100
AcDbLine
 10
1126.212858002236
 20
-289.2070127245013
 30
0.0
 11
1128.092355225099
 21
-249.2511934963932
 31
0.0
  0
LINE
  5
25A
330
249
100
AcDbEntity
  8
_0-1_荳_闊_
  6
繝_繧_繝_繧_繧_繝__24
 62
     7
100
AcDbLine
 10
1053.176560615812
 20
-245.7272004801841
 30
0.0
 11
1123.099244265002
 21
-249.0163206201952
 31
0.0
  0
LINE
  5
25B
330
249
100
AcDbEntity
  8
_0-1_荳_闊_
  6
繝_繧_繝_繧_繧_繝__24
 62
     7
100
AcDbLine
 10
1123.099244265002
 20
-249.0163206201952
 30
0.0
 11
1121.219747042138
 21
-288.9721398483032
 31
0.0
  0
LINE
  5
25C
330
249
100
AcDbEntity
  8
_0-1_荳_闊_
  6
繝_繧_繝_繧_繧_繝__24
 62
     7
100
AcDbLine
 10
1121.219747042138
 20
-288.9721398483032
 30
0.0
 11
1051.297063392949
 21
-285.6830197082921
 31
0.0
  0
LINE
  5
25D
330
249
100
AcDbEntity
  8
_0-1_荳_闊_
  6
繝_繧_繝_繧_繧_繝__24
 62
     7
100
AcDbLine
 10
1051.297063392949
 20
-285.6830197082921
 30
0.0
 11
1053.176560615812
 21
-245.7272004801841
 31
0.0
  0
LINE
  5
25E
330
249
100
AcDbEntity
  8
_0-1_荳_闊_
  6
繝_繧_繝_繧_繧_繝__24
 62
     7
100
AcDbLine
 10
1427.761015190734
 20
-263.3470880380776
 30
0.0
 11
1497.683698839923
 21
-266.6362081780887
 31
0.0
  0
LINE
  5
25F
330
249
100
AcDbEntity
  8
_0-1_荳_闊_
  6
繝_繧_繝_繧_繧_繝__24
 62
     7
100
AcDbLine
 10
1497.683698839923
 20
-266.6362081780887
 30
0.0
 11
1495.804201617059
 21
-306.5920274061968
 31
0.0
  0
LINE
  5
260
330
249
100
AcDbEntity
  8
_0-1_荳_闊_
  6
繝_繧_繝_繧_繧_繝__24
 62
     7
100
AcDbLine
 10
1495.804201617059
 20
-306.5920274061968
 30
0.0
 11
1425.88151796787
 21
-303.3029072661857
 31
0.0
  0
LINE
  5
261
330
249
100
AcDbEntity
  8
_0-1_荳_闊_
  6
繝_繧_繝_繧_繧_繝__24
 62
     7
100
AcDbLine
 10
1425.88151796787
 20
-303.3029072661857
 30
0.0
 11
1427.761015190734
 21
-263.3470880380776
 31
0.0
  0
INSERT
  5
262
330
249
100
AcDbEntity
  8
_0-1_荳_闊_
100
AcDbBlockReference
  2
-037-繧_繝_繝_繝__15-1
 10
0.0
 20
0.0
 30
0.0
  0
ENDBLK
  5
263
330
249
100
AcDbEntity
  8
0
100
AcDbBlockEnd
  0
BLOCK
  5
264
330
265
100
AcDbEntity
  8
0
100
AcDbBlockBegin
  2
-039-繧_繝_繝_繝__17-1
 70
     0
 10
0.0
 20
0.0
 30
0.0
  3
-039-繧_繝_繝_繝__17-1
  1

  0
ARC
  5
266
330
265
100
AcDbEntity
  8
_0-1_荳_闊_
  6
繝_繧_繝_繧_繧_繝__24
 62
     7
100
AcDbCircle
 10
231.989498223028
 20
729.9330589898771
 30
0.0
 40
7.5
100
AcDbArc
 50
90.0
 51
270.0
  0
LINE
  5
267
330
265
100
AcDbEntity
  8
_0-1_荳_闊_
  6
Continuous
 62
     7
100
AcDbLine
 10
231.989498223028
 20
722.433058989877
 30
0.0
 11
236.989498223028
 21
722.433058989877
 31
0.0
  0
LINE
  5
268
330
265
100
AcDbEntity
  8
_0-1_荳_闊_
  6
Continuous
 62
     7
100
AcDbLine
 10
231.989498223028
 20
737.433058989877
 30
0.0
 11
236.989498223028
 21
737.433058989877
 31
0.0
  0
ARC
  5
269
330
265
100
AcDbEntity
  8
_0-1_荳_闊_
  6
繝_繧_繝_繧_繧_繝__24
 62
     7
100
AcDbCircle
 10
236.989498223028
 20
729.9330589898771
 30
0.0
 40
7.5
100
AcDbArc
 50
270.0
 51
90.0
  0
ENDBLK
  5
26A
330
265
100
AcDbEntity
  8
0
100
AcDbBlockEnd
  0
BLOCK
  5
26B
330
26C
100
AcDbEntity
  8
0
100
AcDbBlockBegin
  2
-040-繧_繝_繝_繝__5-1
 70
     0
 10
0.0
 20
0.0
 30
0.0
  3
-040-繧_繝_繝_繝__5-1
  1

  0
LINE
  5
26D
330
26C
100
AcDbEntity
  8
_0-1_荳_闊_
  6
Continuous
 62
     7
100
AcDbLine
 10
0.0
 20
745.0
 30
0.0
 11
5.999999999999943
 21
745.0
 31
0.0
  0
ENDBLK
  5
26E
330
26C
100
AcDbEntity
  8
0
100
AcDbBlockEnd
  0
ENDSEC
  0
SECTION
  2
ENTITIES
  0
LINE
  5
26F
330
1D
100
AcDbEntity
  8
_0-0_0
  6
Continuous
 62
     7
100
AcDbLine
 10
38310.44004661963
 20
38448.49830354624
 30
0.0
 11
38370.44007022715
 21
38448.49830354624
 31
0.0
  0
LINE
  5
270
330
1D
100
AcDbEntity
  8
_0-0_0
  6
Continuous
 62
     7
100
AcDbLine
 10
38370.44007022715
 20
38448.49830354624
 30
0.0
 11
38370.44007022715
 21
38109.87169500442
 31
0.0
  0
LINE
  5
271
330
1D
100
AcDbEntity
  8
_0-0_0
  6
Continuous
 62
     7
100
AcDbLine
 10
38370.44007022715
 20
38109.87169500442
 30
0.0
 11
38310.44004661963
 21
38109.87169500442
 31
0.0
  0
LINE
  5
272
330
1D
100
AcDbEntity
  8
_0-0_0
  6
Continuous
 62
     7
100
AcDbLine
 10
38310.44004661963
 20
38109.87169500442
 30
0.0
 11
38310.44004661963
 21
38448.49830354624
 31
0.0
  0
LINE
  5
273
330
1D
100
AcDbEntity
  8
_0-0_0
  6
Continuous
 62
     7
100
AcDbLine
 10
38310.45131885905
 20
39671.27777216806
 30
0.0
 11
38370.45131885905
 21
39671.27777216806
 31
0.0
  0
LINE
  5
274
330
1D
100
AcDbEntity
  8
_0-0_0
  6
Continuous
 62
     7
100
AcDbLine
 10
38370.45131885905
 20
39671.27777216806
 30
0.0
 11
38370.45131885905
 21
39111.17859235005
 31
0.0
  0
LINE
  5
275
330
1D
100
AcDbEntity
  8
_0-0_0
  6
Continuous
 62
     7
100
AcDbLine
 10
38370.45131885905
 20
39111.17859235005
 30
0.0
 11
38310.45131885905
 21
39111.17859235005
 31
0.0
  0
LINE
  5
276
330
1D
100
AcDbEntity
  8
_0-0_0
  6
Continuous
 62
     7
100
AcDbLine
 10
38310.45131885905
 20
39111.17859235005
 30
0.0
 11
38310.45131885905
 21
39671.27777216806
 31
0.0
  0
LINE
  5
277
330
1D
100
AcDbEntity
  8
_0-0_0
  6
Continuous
 62
     7
100
AcDbLine
 10
38304.45131885906
 20
39705.98144160333
 30
0.0
 11
38310.45131885905
 21
39705.98144160333
 31
0.0
  0
LINE
  5
278
330
1D
100
AcDbEntity
  8
_0-0_0
  6
Continuous
 62
     7
100
AcDbLine
 10
38310.45131885905
 20
39705.98144160333
 30
0.0
 11
38310.45131885905
 21
39091.95612116126
 31
0.0
  0
LINE
  5
279
330
1D
100
AcDbEntity
  8
_0-0_0
  6
Continuous
 62
     7
100
AcDbLine
 10
38310.45131885905
 20
39091.95612116126
 30
0.0
 11
38304.45131885906
 21
39091.95612116126
 31
0.0
  0
LINE
  5
27A
330
1D
100
AcDbEntity
  8
_0-0_0
  6
Continuous
 62
     7
100
AcDbLine
 10
38304.45131885906
 20
39091.95612116126
 30
0.0
 11
38304.45131885906
 21
39705.98144160333
 31
0.0
  0
INSERT
  5
27B
330
1D
100
AcDbEntity
  8
_0-0_0
100
AcDbBlockReference
  2
-000-繧_繝_繝_繝__1
 10
39853.9306471503
 20
38387.02306217139
 30
0.0
  0
LINE
  5
27C
330
1D
100
AcDbEntity
  8
_0-0_0
  6
Continuous
 62
     7
100
AcDbLine
 10
38310.45131885905
 20
39704.85297417722
 30
0.0
 11
40118.43431349823
 21
39704.85297417722
 31
0.0
  0
LINE
  5
27D
330
1D
100
AcDbEntity
  8
_0-0_0
  6
Continuous
 62
     7
100
AcDbLine
 10
40118.43431349823
 20
39704.85297417722
 30
0.0
 11
40118.43431349823
 21
39677.25896615423
 31
0.0
  0
LINE
  5
27E
330
1D
100
AcDbEntity
  8
_0-0_0
  6
Continuous
 62
     7
100
AcDbLine
 10
40118.43431349823
 20
39677.25896615423
 30
0.0
 11
38310.45131885905
 21
39677.25896615423
 31
0.0
  0
LINE
  5
27F
330
1D
100
AcDbEntity
  8
_0-0_0
  6
Continuous
 62
     7
100
AcDbLine
 10
38310.45131885905
 20
39677.25896615423
 30
0.0
 11
38310.45131885905
 21
39704.85297417722
 31
0.0
  0
LINE
  5
280
330
1D
100
AcDbEntity
  8
_0-0_0
  6
Continuous
 62
     7
100
AcDbLine
 10
39190.15465883154
 20
38448.49830354624
 30
0.0
 11
39240.15465883154
 21
38448.49830354624
 31
0.0
  0
LINE
  5
281
330
1D
100
AcDbEntity
  8
_0-0_0
  6
Continuous
 62
     7
100
AcDbLine
 10
39240.15465883154
 20
38448.49830354624
 30
0.0
 11
39240.15465883154
 21
38143.85854302006
 31
0.0
  0
LINE
  5
282
330
1D
100
AcDbEntity
  8
_0-0_0
  6
Continuous
 62
     7
100
AcDbLine
 10
39240.15465883154
 20
38143.85854302006
 30
0.0
 11
39190.15465883154
 21
38143.85854302006
 31
0.0
  0
LINE
  5
283
330
1D
100
AcDbEntity
  8
_0-0_0
  6
Continuous
 62
     7
100
AcDbLine
 10
39190.15465883154
 20
38143.85854302006
 30
0.0
 11
39190.15465883154
 21
38448.49830354624
 31
0.0
  0
LINE
  5
284
330
1D
100
AcDbEntity
  8
_0-0_0
  6
Continuous
 62
     7
100
AcDbLine
 10
40058.43431349823
 20
38448.49830354624
 30
0.0
 11
40118.43431349823
 21
38448.49830354624
 31
0.0
  0
LINE
  5
285
330
1D
100
AcDbEntity
  8
_0-0_0
  6
Continuous
 62
     7
100
AcDbLine
 10
40118.43431349823
 20
38448.49830354624
 30
0.0
 11
40118.43431349823
 21
38109.87169500442
 31
0.0
  0
LINE
  5
286
330
1D
100
AcDbEntity
  8
_0-0_0
  6
Continuous
 62
     7
100
AcDbLine
 10
40118.43431349823
 20
38109.87169500442
 30
0.0
 11
40058.43431349823
 21
38109.87169500442
 31
0.0
  0
LINE
  5
287
330
1D
100
AcDbEntity
  8
_0-0_0
  6
Continuous
 62
     7
100
AcDbLine
 10
40058.43431349823
 20
38109.87169500442
 30
0.0
 11
40058.43431349823
 21
38448.49830354624
 31
0.0
  0
LINE
  5
288
330
1D
100
AcDbEntity
  8
_0-0_0
  6
Continuous
 62
     7
100
AcDbLine
 10
38314.43431349824
 20
38104.39404146502
 30
0.0
 11
40118.43431349823
 21
38104.39404146502
 31
0.0
  0
LINE
  5
289
330
1D
100
AcDbEntity
  8
_0-0_0
  6
Continuous
 62
     7
100
AcDbLine
 10
40118.43431349823
 20
38104.39404146502
 30
0.0
 11
40118.43431349823
 21
38072.39404146501
 31
0.0
  0
LINE
  5
28A
330
1D
100
AcDbEntity
  8
_0-0_0
  6
Continuous
 62
     7
100
AcDbLine
 10
40118.43431349823
 20
38072.39404146501
 30
0.0
 11
38314.43431349824
 21
38072.39404146501
 31
0.0
  0
LINE
  5
28B
330
1D
100
AcDbEntity
  8
_0-0_0
  6
Continuous
 62
     7
100
AcDbLine
 10
38314.43431349824
 20
38072.39404146501
 30
0.0
 11
38314.43431349824
 21
38104.39404146502
 31
0.0
  0
LINE
  5
28C
330
1D
100
AcDbEntity
  8
_0-0_0
  6
Continuous
 62
     7
100
AcDbLine
 10
38310.43431349824
 20
37869.53881827727
 30
0.0
 11
40118.43431349823
 21
37869.53881827727
 31
0.0
  0
LINE
  5
28D
330
1D
100
AcDbEntity
  8
_0-0_0
  6
Continuous
 62
     7
100
AcDbLine
 10
40118.43431349823
 20
37869.53881827727
 30
0.0
 11
40118.43431349823
 21
37840.5610434886
 31
0.0
  0
LINE
  5
28E
330
1D
100
AcDbEntity
  8
_0-0_0
  6
Continuous
 62
     7
100
AcDbLine
 10
40118.43431349823
 20
37840.5610434886
 30
0.0
 11
38310.43431349824
 21
37840.5610434886
 31
0.0
  0
LINE
  5
28F
330
1D
100
AcDbEntity
  8
_0-0_0
  6
Continuous
 62
     7
100
AcDbLine
 10
38310.43431349824
 20
37840.5610434886
 30
0.0
 11
38310.43431349824
 21
37869.53881827727
 31
0.0
  0
LINE
  5
290
330
1D
100
AcDbEntity
  8
_0-0_0
  6
Continuous
 62
     7
100
AcDbLine
 10
40118.43431349823
 20
38466.19947479648
 30
0.0
 11
40124.43431349824
 21
38466.19947479648
 31
0.0
  0
LINE
  5
291
330
1D
100
AcDbEntity
  8
_0-0_0
  6
Continuous
 62
     7
100
AcDbLine
 10
40124.43431349824
 20
38466.19947479648
 30
0.0
 11
40124.43431349824
 21
37726.19947479648
 31
0.0
  0
LINE
  5
292
330
1D
100
AcDbEntity
  8
_0-0_0
  6
Continuous
 62
     7
100
AcDbLine
 10
40124.43431349824
 20
37726.19947479648
 30
0.0
 11
40118.43431349823
 21
37726.19947479648
 31
0.0
  0
LINE
  5
293
330
1D
100
AcDbEntity
  8
_0-0_0
  6
Continuous
 62
     7
100
AcDbLine
 10
40118.43431349823
 20
37726.19947479648
 30
0.0
 11
40118.43431349823
 21
38466.19947479648
 31
0.0
  0
LINE
  5
294
330
1D
100
AcDbEntity
  8
_0-0_0
  6
Continuous
 62
     7
100
AcDbLine
 10
38314.43431349824
 20
38467.65102582317
 30
0.0
 11
40114.44004661962
 21
38467.65102582317
 31
0.0
  0
LINE
  5
295
330
1D
100
AcDbEntity
  8
_0-0_0
  6
Continuous
 62
     7
100
AcDbLine
 10
40114.44004661962
 20
38467.65102582317
 30
0.0
 11
40114.44004661962
 21
38400.0389195693
 31
0.0
  0
LINE
  5
296
330
1D
100
AcDbEntity
  8
_0-0_0
  6
Continuous
 62
     7
100
AcDbLine
 10
40114.44004661962
 20
38400.0389195693
 30
0.0
 11
38314.43431349824
 21
38400.0389195693
 31
0.0
  0
LINE
  5
297
330
1D
100
AcDbEntity
  8
_0-0_0
  6
Continuous
 62
     7
100
AcDbLine
 10
38314.43431349824
 20
38400.0389195693
 30
0.0
 11
38314.43431349824
 21
38467.65102582317
 31
0.0
  0
INSERT
  5
298
330
1D
100
AcDbEntity
  8
_0-0_0
100
AcDbBlockReference
  2
-002-_D2
 10
39852.16655494347
 20
38384.09810588385
 30
0.0
  0
INSERT
  5
299
330
1D
100
AcDbEntity
  8
_0-0_0
100
AcDbBlockReference
  2
-003-_D3
 10
39852.16655494347
 20
38384.09810588385
 30
0.0
  0
INSERT
  5
29A
330
1D
100
AcDbEntity
  8
_0-0_0
100
AcDbBlockReference
  2
-004-_D4
 10
39852.16655494347
 20
38384.09810588385
 30
0.0
  0
LINE
  5
29B
330
1D
100
AcDbEntity
  8
_0-0_0
  6
Continuous
 62
     7
100
AcDbLine
 10
40118.43431349823
 20
39710.27600878132
 30
0.0
 11
40124.43431349824
 21
39710.27600878132
 31
0.0
  0
LINE
  5
29C
330
1D
100
AcDbEntity
  8
_0-0_0
  6
Continuous
 62
     7
100
AcDbLine
 10
40124.43431349824
 20
39710.27600878132
 30
0.0
 11
40124.43431349824
 21
39091.95612116126
 31
0.0
  0
LINE
  5
29D
330
1D
100
AcDbEntity
  8
_0-0_0
  6
Continuous
 62
     7
100
AcDbLine
 10
40124.43431349824
 20
39091.95612116126
 30
0.0
 11
40118.43431349823
 21
39091.95612116126
 31
0.0
  0
LINE
  5
29E
330
1D
100
AcDbEntity
  8
_0-0_0
  6
Continuous
 62
     7
100
AcDbLine
 10
40118.43431349823
 20
39091.95612116126
 30
0.0
 11
40118.43431349823
 21
39710.27600878132
 31
0.0
  0
LINE
  5
29F
330
1D
100
AcDbEntity
  8
_0-0_0
  6
Continuous
 62
     7
100
AcDbLine
 10
38314.44281617864
 20
39687.88305665268
 30
0.0
 11
40114.44281617864
 21
39687.88305665268
 31
0.0
  0
LINE
  5
2A0
330
1D
100
AcDbEntity
  8
_0-0_0
  6
Continuous
 62
     7
100
AcDbLine
 10
40114.44281617864
 20
39687.88305665268
 30
0.0
 11
40114.44281617864
 21
39572.88902096314
 31
0.0
  0
LINE
  5
2A1
330
1D
100
AcDbEntity
  8
_0-0_0
  6
Continuous
 62
     7
100
AcDbLine
 10
40114.44281617864
 20
39572.88902096314
 30
0.0
 11
38314.44281617864
 21
39572.88902096314
 31
0.0
  0
LINE
  5
2A2
330
1D
100
AcDbEntity
  8
_0-0_0
  6
Continuous
 62
     7
100
AcDbLine
 10
38314.44281617864
 20
39572.88902096314
 30
0.0
 11
38314.44281617864
 21
39687.88305665268
 31
0.0
  0
LINE
  5
2A3
330
1D
100
AcDbEntity
  8
_0-0_0
  6
Continuous
 62
     7
100
AcDbLine
 10
40114.44281617864
 20
39611.78995435591
 30
0.0
 11
38314.44281617864
 21
39611.78995435591
 31
0.0
  0
LINE
  5
2A4
330
1D
100
AcDbEntity
  8
_0-0_0
  6
Continuous
 62
     7
100
AcDbLine
 10
40114.44281617864
 20
39592.16779770183
 30
0.0
 11
38314.44281617864
 21
39592.16779770183
 31
0.0
  0
LINE
  5
2A5
330
1D
100
AcDbEntity
  8
_0-0_0
  6
Continuous
 62
     7
100
AcDbLine
 10
39397.11561906977
 20
37678.07822143004
 30
0.0
 11
39469.96029571121
 21
37678.07822143004
 31
0.0
  0
LINE
  5
2A6
330
1D
100
AcDbEntity
  8
_0-0_0
  6
Continuous
 62
     7
100
AcDbLine
 10
38315.03828338173
 20
39553.69377109574
 30
0.0
 11
40115.03828338172
 21
39553.69377109574
 31
0.0
  0
LINE
  5
2A7
330
1D
100
AcDbEntity
  8
_0-0_0
  6
Continuous
 62
     7
100
AcDbLine
 10
40115.03828338172
 20
39553.69377109574
 30
0.0
 11
40115.03828338172
 21
39483.78700128798
 31
0.0
  0
LINE
  5
2A8
330
1D
100
AcDbEntity
  8
_0-0_0
  6
Continuous
 62
     7
100
AcDbLine
 10
40115.03828338172
 20
39483.78700128798
 30
0.0
 11
38315.03828338173
 21
39483.78700128798
 31
0.0
  0
LINE
  5
2A9
330
1D
100
AcDbEntity
  8
_0-0_0
  6
Continuous
 62
     7
100
AcDbLine
 10
38315.03828338173
 20
39483.78700128798
 30
0.0
 11
38315.03828338173
 21
39553.69377109574
 31
0.0
  0
LINE
  5
2AA
330
1D
100
AcDbEntity
  8
_0-0_0
  6
Continuous
 62
     7
100
AcDbLine
 10
39435.36349572506
 20
38710.3435342522
 30
0.0
 11
39541.34774229301
 21
38710.3435342522
 31
0.0
  0
LINE
  5
2AB
330
1D
100
AcDbEntity
  8
_0-0_0
  6
Continuous
 62
     7
100
AcDbLine
 10
39435.36349572506
 20
38710.3435342522
 30
0.0
 11
39263.84347660606
 21
38409.002736421
 31
0.0
  0
LINE
  5
2AC
330
1D
100
AcDbEntity
  8
_0-0_0
  6
Continuous
 62
     7
100
AcDbLine
 10
40120.15457368799
 20
38145.81356284561
 30
0.0
 11
40126.15459729553
 21
38145.81356284561
 31
0.0
  0
LINE
  5
2AD
330
1D
100
AcDbEntity
  8
_0-0_0
  6
Continuous
 62
     7
100
AcDbLine
 10
40114.44281617864
 20
39631.15790638823
 30
0.0
 11
38314.44281617864
 21
39631.15790638823
 31
0.0
  0
INSERT
  5
2AE
330
1D
100
AcDbEntity
  8
_0-0_0
100
AcDbBlockReference
  2
-005-_D5
 10
39852.16655494347
 20
38384.09810588385
 30
0.0
  0
LINE
  5
2AF
330
1D
100
AcDbEntity
  8
_0-0_0
  6
Continuous
 62
     7
100
AcDbLine
 10
38314.43431349824
 20
38249.91122225672
 30
0.0
 11
40114.39428069841
 21
38249.91122225672
 31
0.0
  0
LINE
  5
2B0
330
1D
100
AcDbEntity
  8
_0-0_0
  6
Continuous
 62
     7
100
AcDbLine
 10
40114.39428069841
 20
38249.91122225672
 30
0.0
 11
40114.39428069841
 21
38182.29911600284
 31
0.0
  0
LINE
  5
2B1
330
1D
100
AcDbEntity
  8
_0-0_0
  6
Continuous
 62
     7
100
AcDbLine
 10
40114.39428069841
 20
38182.29911600284
 30
0.0
 11
38314.43431349824
 21
38182.29911600284
 31
0.0
  0
LINE
  5
2B2
330
1D
100
AcDbEntity
  8
_0-0_0
  6
Continuous
 62
     7
100
AcDbLine
 10
38314.43431349824
 20
38182.29911600284
 30
0.0
 11
38314.43431349824
 21
38249.91122225672
 31
0.0
  0
LINE
  5
2B3
330
1D
100
AcDbEntity
  8
_0-0_0
  6
Continuous
 62
     7
100
AcDbLine
 10
38304.45131885906
 20
39710.27600878132
 30
0.0
 11
38310.45131885905
 21
39710.27600878132
 31
0.0
  0
LINE
  5
2B4
330
1D
100
AcDbEntity
  8
_0-0_0
  6
Continuous
 62
     7
100
AcDbLine
 10
38310.45131885905
 20
39710.27600878132
 30
0.0
 11
38310.45131885905
 21
39091.95612116126
 31
0.0
  0
LINE
  5
2B5
330
1D
100
AcDbEntity
  8
_0-0_0
  6
Continuous
 62
     7
100
AcDbLine
 10
38310.45131885905
 20
39091.95612116126
 30
0.0
 11
38304.45131885906
 21
39091.95612116126
 31
0.0
  0
LINE
  5
2B6
330
1D
100
AcDbEntity
  8
_0-0_0
  6
Continuous
 62
     7
100
AcDbLine
 10
38304.45131885906
 20
39091.95612116126
 30
0.0
 11
38304.45131885906
 21
39710.27600878132
 31
0.0
  0
INSERT
  5
2B7
330
1D
100
AcDbEntity
  8
_0-0_0
100
AcDbBlockReference
  2
-006-_D6
 10
39852.16655494347
 20
38384.09810588385
 30
0.0
  0
INSERT
  5
2B8
330
1D
100
AcDbEntity
  8
_0-0_0
100
AcDbBlockReference
  2
-007-_D7
 10
39852.16655494347
 20
38384.09810588385
 30
0.0
  0
INSERT
  5
2B9
330
1D
100
AcDbEntity
  8
_0-0_0
100
AcDbBlockReference
  2
-008-_D8
 10
39852.16655494347
 20
38384.09810588385
 30
0.0
  0
INSERT
  5
2BA
330
1D
100
AcDbEntity
  8
_0-0_0
100
AcDbBlockReference
  2
-009-_D9
 10
39852.16655494347
 20
38384.09810588385
 30
0.0
  0
INSERT
  5
2BB
330
1D
100
AcDbEntity
  8
_0-0_0
100
AcDbBlockReference
  2
-010-_D10
 10
39852.16655494347
 20
38384.09810588385
 30
0.0
  0
INSERT
  5
2BC
330
1D
100
AcDbEntity
  8
_0-0_0
100
AcDbBlockReference
  2
-011-_D11
 10
39852.16655494347
 20
38384.09810588385
 30
0.0
  0
INSERT
  5
2BD
330
1D
100
AcDbEntity
  8
_0-0_0
100
AcDbBlockReference
  2
-012-_D12
 10
39852.16655494347
 20
38384.09810588385
 30
0.0
  0
INSERT
  5
2BE
330
1D
100
AcDbEntity
  8
_0-0_0
100
AcDbBlockReference
  2
-013-_D13
 10
39852.16655494347
 20
38384.09810588385
 30
0.0
  0
INSERT
  5
2BF
330
1D
100
AcDbEntity
  8
_0-0_0
100
AcDbBlockReference
  2
-014-_D14
 10
39852.16655494347
 20
38384.09810588385
 30
0.0
  0
INSERT
  5
2C0
330
1D
100
AcDbEntity
  8
_0-0_0
100
AcDbBlockReference
  2
-015-_D15
 10
39852.16655494347
 20
38384.09810588385
 30
0.0
  0
LINE
  5
2C1
330
1D
100
AcDbEntity
  8
_0-0_0
  6
Continuous
 62
     7
100
AcDbLine
 10
38308.37573455436
 20
38145.81356284561
 30
0.0
 11
38301.17570679191
 21
38145.81356284561
 31
0.0
  0
LINE
  5
2C2
330
1D
100
AcDbEntity
  8
_0-0_0
  6
Continuous
 62
     7
100
AcDbLine
 10
38314.43431349824
 20
38144.10839402373
 30
0.0
 11
40114.43431349824
 21
38144.10839402373
 31
0.0
  0
LINE
  5
2C3
330
1D
100
AcDbEntity
  8
_0-0_0
  6
Continuous
 62
     7
100
AcDbLine
 10
40114.43431349824
 20
38144.10839402373
 30
0.0
 11
40114.43431349824
 21
38104.39404146502
 31
0.0
  0
LINE
  5
2C4
330
1D
100
AcDbEntity
  8
_0-0_0
  6
Continuous
 62
     7
100
AcDbLine
 10
40114.43431349824
 20
38104.39404146502
 30
0.0
 11
38314.43431349824
 21
38104.39404146502
 31
0.0
  0
LINE
  5
2C5
330
1D
100
AcDbEntity
  8
_0-0_0
  6
Continuous
 62
     7
100
AcDbLine
 10
38314.43431349824
 20
38104.39404146502
 30
0.0
 11
38314.43431349824
 21
38144.10839402373
 31
0.0
  0
LINE
  5
2C6
330
1D
100
AcDbEntity
  8
_0-0_0
  6
Continuous
 62
     7
100
AcDbLine
 10
39229.83938277721
 20
38162.43568440791
 30
0.0
 11
39334.6162016858
 21
37980.95691060279
 31
0.0
  0
LINE
  5
2C7
330
1D
100
AcDbEntity
  8
_0-0_0
  6
Continuous
 62
     7
100
AcDbLine
 10
39334.6162016858
 20
37980.95691060279
 30
0.0
 11
39407.46087832725
 21
37980.95691060279
 31
0.0
  0
LINE
  5
2C8
330
1D
100
AcDbEntity
  8
_0-0_0
  6
繝_繧_繝_繧_繧_繝__22
 62
     7
100
AcDbLine
 10
38004.63776878423
 20
37726.19947479648
 30
0.0
 11
40454.67576617864
 21
37726.19947479648
 31
0.0
  0
INSERT
  5
2C9
330
1D
100
AcDbEntity
  8
_0-0_0
100
AcDbBlockReference
  2
-016-繧_繝_繝_繝__2-1
 10
39853.9306471503
 20
38387.02306217139
 30
0.0
  0
LINE
  5
2CA
330
1D
100
AcDbEntity
  8
_0-0_0
  6
Continuous
 62
     7
100
AcDbLine
 10
38515.89659396243
 20
37592.97227791121
 30
0.0
 11
38591.71489413576
 21
37592.97227791121
 31
0.0
  0
LINE
  5
2CB
330
1D
100
AcDbEntity
  8
_0-0_0
  6
Continuous
 62
     7
100
AcDbLine
 10
38515.89659396243
 20
37592.97227791121
 30
0.0
 11
38457.17153501376
 21
37534.24721896253
 31
0.0
  0
INSERT
  5
2CC
330
1D
100
AcDbEntity
  8
_0-0_0
100
AcDbBlockReference
  2
-017-繧_繝_繝_繝__3-1
 10
39853.9306471503
 20
38387.02306217139
 30
0.0
  0
INSERT
  5
2CD
330
1D
100
AcDbEntity
  8
_0-0_0
100
AcDbBlockReference
  2
-018-_D18
 10
39852.16655494347
 20
38384.09810588385
 30
0.0
  0
INSERT
  5
2CE
330
1D
100
AcDbEntity
  8
_0-0_0
100
AcDbBlockReference
  2
-019-_D19
 10
39852.16655494347
 20
38384.09810588385
 30
0.0
  0
INSERT
  5
2CF
330
1D
100
AcDbEntity
  8
_0-0_0
100
AcDbBlockReference
  2
-020-_D20
 10
39852.16655494347
 20
38384.09810588385
 30
0.0
  0
INSERT
  5
2D0
330
1D
100
AcDbEntity
  8
_0-0_0
100
AcDbBlockReference
  2
-021-_D21
 10
39852.16655494347
 20
38384.09810588385
 30
0.0
  0
LINE
  5
2D1
330
1D
100
AcDbEntity
  8
_0-0_0
  6
Continuous
 62
     7
100
AcDbLine
 10
40848.37798293057
 20
37726.19947479648
 30
0.0
 11
41548.37798293057
 21
37726.19947479648
 31
0.0
  0
LINE
  5
2D2
330
1D
100
AcDbEntity
  8
_0-0_0
  6
Continuous
 62
     7
100
AcDbLine
 10
41548.37798293057
 20
37726.19947479648
 30
0.0
 11
41548.37798293057
 21
37426.19947479648
 31
0.0
  0
LINE
  5
2D3
330
1D
100
AcDbEntity
  8
_0-0_0
  6
Continuous
 62
     7
100
AcDbLine
 10
41548.37798293057
 20
37426.19947479648
 30
0.0
 11
40848.37798293057
 21
37426.19947479648
 31
0.0
  0
LINE
  5
2D4
330
1D
100
AcDbEntity
  8
_0-0_0
  6
Continuous
 62
     7
100
AcDbLine
 10
40848.37798293057
 20
37426.19947479648
 30
0.0
 11
40848.37798293057
 21
37726.19947479648
 31
0.0
  0
LINE
  5
2D5
330
1D
100
AcDbEntity
  8
_0-0_0
  6
Continuous
 62
     7
100
AcDbLine
 10
40823.37798293058
 20
37426.19947479648
 30
0.0
 11
41573.37798293058
 21
37426.19947479648
 31
0.0
  0
LINE
  5
2D6
330
1D
100
AcDbEntity
  8
_0-0_0
  6
Continuous
 62
     7
100
AcDbLine
 10
41573.37798293058
 20
37426.19947479648
 30
0.0
 11
41573.37798293058
 21
37376.19947479648
 31
0.0
  0
LINE
  5
2D7
330
1D
100
AcDbEntity
  8
_0-0_0
  6
Continuous
 62
     7
100
AcDbLine
 10
41573.37798293058
 20
37376.19947479648
 30
0.0
 11
40823.37798293058
 21
37376.19947479648
 31
0.0
  0
LINE
  5
2D8
330
1D
100
AcDbEntity
  8
_0-0_0
  6
Continuous
 62
     7
100
AcDbLine
 10
40823.37798293058
 20
37376.19947479648
 30
0.0
 11
40823.37798293058
 21
37426.19947479648
 31
0.0
  0
LINE
  5
2D9
330
1D
100
AcDbEntity
  8
_0-0_0
  6
Continuous
 62
     7
100
AcDbLine
 10
40883.94422620083
 20
37376.19947479648
 30
0.0
 11
40912.81173966032
 21
37426.19947479648
 31
0.0
  0
LINE
  5
2DA
330
1D
100
AcDbEntity
  8
_0-0_0
  6
Continuous
 62
     7
100
AcDbLine
 10
40910.20954400068
 20
37421.69233970277
 30
0.0
 11
40905.70240890698
 21
37426.19947479648
 31
0.0
  0
LINE
  5
2DB
330
1D
100
AcDbEntity
  8
_0-0_0
  6
Continuous
 62
     7
100
AcDbLine
 10
40891.05355695418
 20
37376.19947479648
 30
0.0
 11
40886.54642186047
 21
37380.70660989019
 31
0.0
  0
LINE
  5
2DC
330
1D
100
AcDbEntity
  8
_0-0_0
  6
Continuous
 62
     7
100
AcDbLine
 10
40934.38395708871
 20
37376.19947479648
 30
0.0
 11
40963.25147054819
 21
37426.19947479648
 31
0.0
  0
LINE
  5
2DD
330
1D
100
AcDbEntity
  8
_0-0_0
  6
Continuous
 62
     7
100
AcDbLine
 10
40960.64927488856
 20
37421.69233970277
 30
0.0
 11
40956.14213979484
 21
37426.19947479648
 31
0.0
  0
LINE
  5
2DE
330
1D
100
AcDbEntity
  8
_0-0_0
  6
Continuous
 62
     7
100
AcDbLine
 10
40941.49328784205
 20
37376.19947479648
 30
0.0
 11
40936.98615274834
 21
37380.70660989019
 31
0.0
  0
LINE
  5
2DF
330
1D
100
AcDbEntity
  8
_0-0_0
  6
Continuous
 62
     7
100
AcDbLine
 10
40984.82368797657
 20
37376.19947479648
 30
0.0
 11
41013.69120143605
 21
37426.19947479648
 31
0.0
  0
LINE
  5
2E0
330
1D
100
AcDbEntity
  8
_0-0_0
  6
Continuous
 62
     7
100
AcDbLine
 10
41011.08900577641
 20
37421.69233970277
 30
0.0
 11
41006.58187068271
 21
37426.19947479648
 31
0.0
  0
LINE
  5
2E1
330
1D
100
AcDbEntity
  8
_0-0_0
  6
Continuous
 62
     7
100
AcDbLine
 10
40991.93301872992
 20
37376.19947479648
 30
0.0
 11
40987.4258836362
 21
37380.70660989019
 31
0.0
  0
LINE
  5
2E2
330
1D
100
AcDbEntity
  8
_0-0_0
  6
Continuous
 62
     7
100
AcDbLine
 10
41035.26341886444
 20
37376.19947479648
 30
0.0
 11
41064.13093232392
 21
37426.19947479648
 31
0.0
  0
LINE
  5
2E3
330
1D
100
AcDbEntity
  8
_0-0_0
  6
Continuous
 62
     7
100
AcDbLine
 10
41061.52873666429
 20
37421.69233970277
 30
0.0
 11
41057.02160157058
 21
37426.19947479648
 31
0.0
  0
LINE
  5
2E4
330
1D
100
AcDbEntity
  8
_0-0_0
  6
Continuous
 62
     7
100
AcDbLine
 10
41042.37274961779
 20
37376.19947479648
 30
0.0
 11
41037.86561452408
 21
37380.70660989019
 31
0.0
  0
LINE
  5
2E5
330
1D
100
AcDbEntity
  8
_0-0_0
  6
Continuous
 62
     7
100
AcDbLine
 10
41085.70314975231
 20
37376.19947479648
 30
0.0
 11
41114.57066321179
 21
37426.19947479648
 31
0.0
  0
LINE
  5
2E6
330
1D
100
AcDbEntity
  8
_0-0_0
  6
Continuous
 62
     7
100
AcDbLine
 10
41111.96846755215
 20
37421.69233970277
 30
0.0
 11
41107.46133245844
 21
37426.19947479648
 31
0.0
  0
LINE
  5
2E7
330
1D
100
AcDbEntity
  8
_0-0_0
  6
Continuous
 62
     7
100
AcDbLine
 10
41092.81248050566
 20
37376.19947479648
 30
0.0
 11
41088.30534541194
 21
37380.70660989019
 31
0.0
  0
LINE
  5
2E8
330
1D
100
AcDbEntity
  8
_0-0_0
  6
Continuous
 62
     7
100
AcDbLine
 10
41136.14288064018
 20
37376.19947479648
 30
0.0
 11
41165.01039409966
 21
37426.19947479648
 31
0.0
  0
LINE
  5
2E9
330
1D
100
AcDbEntity
  8
_0-0_0
  6
Continuous
 62
     7
100
AcDbLine
 10
41162.40819844002
 20
37421.69233970277
 30
0.0
 11
41157.90106334632
 21
37426.19947479648
 31
0.0
  0
LINE
  5
2EA
330
1D
100
AcDbEntity
  8
_0-0_0
  6
Continuous
 62
     7
100
AcDbLine
 10
41143.25221139353
 20
37376.19947479648
 30
0.0
 11
41138.74507629981
 21
37380.70660989019
 31
0.0
  0
LINE
  5
2EB
330
1D
100
AcDbEntity
  8
_0-0_0
  6
Continuous
 62
     7
100
AcDbLine
 10
41186.58261152805
 20
37376.19947479648
 30
0.0
 11
41215.45012498753
 21
37426.19947479648
 31
0.0
  0
LINE
  5
2EC
330
1D
100
AcDbEntity
  8
_0-0_0
  6
Continuous
 62
     7
100
AcDbLine
 10
41212.8479293279
 20
37421.69233970277
 30
0.0
 11
41208.34079423418
 21
37426.19947479648
 31
0.0
  0
LINE
  5
2ED
330
1D
100
AcDbEntity
  8
_0-0_0
  6
Continuous
 62
     7
100
AcDbLine
 10
41193.6919422814
 20
37376.19947479648
 30
0.0
 11
41189.18480718767
 21
37380.70660989019
 31
0.0
  0
LINE
  5
2EE
330
1D
100
AcDbEntity
  8
_0-0_0
  6
Continuous
 62
     7
100
AcDbLine
 10
41358.29399738486
 20
37726.19947479648
 30
0.0
 11
41058.02743696778
 21
37425.93291437946
 31
0.0
  0
LINE
  5
2EF
330
1D
100
AcDbEntity
  8
_0-0_0
  6
Continuous
 62
     7
100
AcDbLine
 10
41348.78071295349
 20
37726.19947479648
 30
0.0
 11
41048.51415253652
 21
37425.93291437946
 31
0.0
  0
LINE
  5
2F0
330
1D
100
AcDbEntity
  8
_0-0_0
  6
Continuous
 62
     7
100
AcDbLine
 10
41339.26742852225
 20
37726.19947479648
 30
0.0
 11
41039.00086810528
 21
37425.93291437946
 31
0.0
  0
LINE
  5
2F1
330
1D
100
AcDbEntity
  8
_0-0_0
  6
Continuous
 62
     7
100
AcDbLine
 10
40887.20896087849
 20
37426.19947479648
 30
0.0
 11
40886.94240046148
 21
37425.93291437946
 31
0.0
  0
LINE
  5
2F2
330
1D
100
AcDbEntity
  8
_0-0_0
  6
Continuous
 62
     7
100
AcDbLine
 10
41232.57478224859
 20
37376.19947479648
 30
0.0
 11
41261.44229570807
 21
37426.19947479648
 31
0.0
  0
LINE
  5
2F3
330
1D
100
AcDbEntity
  8
_0-0_0
  6
Continuous
 62
     7
100
AcDbLine
 10
41258.84010004845
 20
37421.69233970277
 30
0.0
 11
41254.33296495473
 21
37426.19947479648
 31
0.0
  0
LINE
  5
2F4
330
1D
100
AcDbEntity
  8
_0-0_0
  6
Continuous
 62
     7
100
AcDbLine
 10
41239.68411300194
 20
37376.19947479648
 30
0.0
 11
41235.17697790823
 21
37380.70660989019
 31
0.0
  0
LINE
  5
2F5
330
1D
100
AcDbEntity
  8
_0-0_0
  6
Continuous
 62
     7
100
AcDbLine
 10
41283.01451313647
 20
37376.19947479648
 30
0.0
 11
41311.88202659593
 21
37426.19947479648
 31
0.0
  0
LINE
  5
2F6
330
1D
100
AcDbEntity
  8
_0-0_0
  6
Continuous
 62
     7
100
AcDbLine
 10
41309.27983093632
 20
37421.69233970277
 30
0.0
 11
41304.77269584259
 21
37426.19947479648
 31
0.0
  0
LINE
  5
2F7
330
1D
100
AcDbEntity
  8
_0-0_0
  6
Continuous
 62
     7
100
AcDbLine
 10
41290.12384388981
 20
37376.19947479648
 30
0.0
 11
41285.61670879609
 21
37380.70660989019
 31
0.0
  0
LINE
  5
2F8
330
1D
100
AcDbEntity
  8
_0-0_0
  6
Continuous
 62
     7
100
AcDbLine
 10
41333.45424402433
 20
37376.19947479648
 30
0.0
 11
41362.3217574838
 21
37426.19947479648
 31
0.0
  0
LINE
  5
2F9
330
1D
100
AcDbEntity
  8
_0-0_0
  6
Continuous
 62
     7
100
AcDbLine
 10
41359.71956182417
 20
37421.69233970277
 30
0.0
 11
41355.21242673046
 21
37426.19947479648
 31
0.0
  0
LINE
  5
2FA
330
1D
100
AcDbEntity
  8
_0-0_0
  6
Continuous
 62
     7
100
AcDbLine
 10
41340.56357477768
 20
37376.19947479648
 30
0.0
 11
41336.05643968396
 21
37380.70660989019
 31
0.0
  0
LINE
  5
2FB
330
1D
100
AcDbEntity
  8
_0-0_0
  6
Continuous
 62
     7
100
AcDbLine
 10
41235.83951692625
 20
37426.19947479648
 30
0.0
 11
41235.57295650924
 21
37425.93291437946
 31
0.0
  0
LINE
  5
2FC
330
1D
100
AcDbEntity
  8
_0-0_0
  6
Continuous
 62
     7
100
AcDbLine
 10
41380.6427257167
 20
37376.19947479648
 30
0.0
 11
41409.51023917619
 21
37426.19947479648
 31
0.0
  0
LINE
  5
2FD
330
1D
100
AcDbEntity
  8
_0-0_0
  6
Continuous
 62
     7
100
AcDbLine
 10
41406.90804351656
 20
37421.69233970277
 30
0.0
 11
41402.40090842285
 21
37426.19947479648
 31
0.0
  0
LINE
  5
2FE
330
1D
100
AcDbEntity
  8
_0-0_0
  6
Continuous
 62
     7
100
AcDbLine
 10
41387.75205647005
 20
37376.19947479648
 30
0.0
 11
41383.24492137633
 21
37380.70660989019
 31
0.0
  0
LINE
  5
2FF
330
1D
100
AcDbEntity
  8
_0-0_0
  6
Continuous
 62
     7
100
AcDbLine
 10
41426.63489643725
 20
37376.19947479648
 30
0.0
 11
41455.50240989673
 21
37426.19947479648
 31
0.0
  0
LINE
  5
300
330
1D
100
AcDbEntity
  8
_0-0_0
  6
Continuous
 62
     7
100
AcDbLine
 10
41452.9002142371
 20
37421.69233970277
 30
0.0
 11
41448.39307914338
 21
37426.19947479648
 31
0.0
  0
LINE
  5
301
330
1D
100
AcDbEntity
  8
_0-0_0
  6
Continuous
 62
     7
100
AcDbLine
 10
41433.7442271906
 20
37376.19947479648
 30
0.0
 11
41429.23709209687
 21
37380.70660989019
 31
0.0
  0
LINE
  5
302
330
1D
100
AcDbEntity
  8
_0-0_0
  6
Continuous
 62
     7
100
AcDbLine
 10
41477.07462732513
 20
37376.19947479648
 30
0.0
 11
41505.9421407846
 21
37426.19947479648
 31
0.0
  0
LINE
  5
303
330
1D
100
AcDbEntity
  8
_0-0_0
  6
Continuous
 62
     7
100
AcDbLine
 10
41503.33994512497
 20
37421.69233970277
 30
0.0
 11
41498.83281003125
 21
37426.19947479648
 31
0.0
  0
LINE
  5
304
330
1D
100
AcDbEntity
  8
_0-0_0
  6
Continuous
 62
     7
100
AcDbLine
 10
41484.18395807846
 20
37376.19947479648
 30
0.0
 11
41479.67682298475
 21
37380.70660989019
 31
0.0
  0
LINE
  5
305
330
1D
100
AcDbEntity
  8
_0-0_0
  6
Continuous
 62
     7
100
AcDbLine
 10
41429.89963111491
 20
37426.19947479648
 30
0.0
 11
41429.63307069789
 21
37425.93291437946
 31
0.0
  0
INSERT
  5
306
330
1D
100
AcDbEntity
  8
_0-0_0
100
AcDbBlockReference
  2
-022-_D22
 10
39852.16655494347
 20
38384.09810588385
 30
0.0
  0
INSERT
  5
307
330
1D
100
AcDbEntity
  8
_0-0_0
100
AcDbBlockReference
  2
-023-_D23
 10
39852.16655494347
 20
38384.09810588385
 30
0.0
  0
INSERT
  5
308
330
1D
100
AcDbEntity
  8
_0-0_0
100
AcDbBlockReference
  2
-024-_D24
 10
39852.16655494347
 20
38384.09810588385
 30
0.0
  0
LINE
  5
309
330
1D
100
AcDbEntity
  8
_0-0_0
  6
繝_繧_繝_繧_繧_繝__22
 62
     7
100
AcDbLine
 10
40686.43728327574
 20
37726.19947479648
 30
0.0
 11
41561.43728327573
 21
37726.19947479648
 31
0.0
  0
INSERT
  5
30A
330
1D
100
AcDbEntity
  8
_0-0_0
100
AcDbBlockReference
  2
-025-_D25
 10
39852.16655494347
 20
38384.09810588385
 30
0.0
  0
INSERT
  5
30B
330
1D
100
AcDbEntity
  8
_0-0_0
100
AcDbBlockReference
  2
-026-_D26
 10
39852.16655494347
 20
38384.09810588385
 30
0.0
  0
INSERT
  5
30C
330
1D
100
AcDbEntity
  8
_0-0_0
100
AcDbBlockReference
  2
-027-_D27
 10
39852.16655494347
 20
38384.09810588385
 30
0.0
  0
INSERT
  5
30D
330
1D
100
AcDbEntity
  8
_0-0_0
100
AcDbBlockReference
  2
-028-_D28
 10
39852.16655494347
 20
38384.09810588385
 30
0.0
  0
LINE
  5
30E
330
1D
100
AcDbEntity
  8
_0-0_0
  6
繝_繧_繝_繧_繧_繝__24
 62
     7
100
AcDbLine
 10
40068.44558573767
 20
37732.19947479648
 30
0.0
 11
40118.44558573767
 21
37732.19947479648
 31
0.0
  0
LINE
  5
30F
330
1D
100
AcDbEntity
  8
_0-0_0
  6
繝_繧_繝_繧_繧_繝__24
 62
     7
100
AcDbLine
 10
40118.44558573767
 20
37732.19947479648
 30
0.0
 11
40118.44558573767
 21
37726.19947479648
 31
0.0
  0
LINE
  5
310
330
1D
100
AcDbEntity
  8
_0-0_0
  6
繝_繧_繝_繧_繧_繝__24
 62
     7
100
AcDbLine
 10
40118.44558573767
 20
37726.19947479648
 30
0.0
 11
40068.44558573767
 21
37726.19947479648
 31
0.0
  0
LINE
  5
311
330
1D
100
AcDbEntity
  8
_0-0_0
  6
繝_繧_繝_繧_繧_繝__24
 62
     7
100
AcDbLine
 10
40068.44558573767
 20
37726.19947479648
 30
0.0
 11
40068.44558573767
 21
37732.19947479648
 31
0.0
  0
LINE
  5
312
330
1D
100
AcDbEntity
  8
_0-0_0
  6
繝_繧_繝_繧_繧_繝__24
 62
     7
100
AcDbLine
 10
38310.44004661963
 20
37732.19947479648
 30
0.0
 11
38360.44004661962
 21
37732.19947479648
 31
0.0
  0
LINE
  5
313
330
1D
100
AcDbEntity
  8
_0-0_0
  6
繝_繧_繝_繧_繧_繝__24
 62
     7
100
AcDbLine
 10
38360.44004661962
 20
37732.19947479648
 30
0.0
 11
38360.44004661962
 21
37726.19947479648
 31
0.0
  0
LINE
  5
314
330
1D
100
AcDbEntity
  8
_0-0_0
  6
繝_繧_繝_繧_繧_繝__24
 62
     7
100
AcDbLine
 10
38360.44004661962
 20
37726.19947479648
 30
0.0
 11
38310.44004661963
 21
37726.19947479648
 31
0.0
  0
LINE
  5
315
330
1D
100
AcDbEntity
  8
_0-0_0
  6
繝_繧_繝_繧_繧_繝__24
 62
     7
100
AcDbLine
 10
38310.44004661963
 20
37726.19947479648
 30
0.0
 11
38310.44004661963
 21
37732.19947479648
 31
0.0
  0
LINE
  5
316
330
1D
100
AcDbEntity
  8
_0-0_0
  6
Continuous
 62
     7
100
AcDbLine
 10
40120.16584592743
 20
38145.81356284561
 30
0.0
 11
40126.16586953495
 21
38145.81356284561
 31
0.0
  0
LINE
  5
317
330
1D
100
AcDbEntity
  8
_0-0_0
  6
Continuous
 62
     7
100
AcDbLine
 10
38314.43431349824
 20
38322.35363713578
 30
0.0
 11
40114.39428069841
 21
38322.35363713578
 31
0.0
  0
LINE
  5
318
330
1D
100
AcDbEntity
  8
_0-0_0
  6
Continuous
 62
     7
100
AcDbLine
 10
40114.39428069841
 20
38322.35363713578
 30
0.0
 11
40114.39428069841
 21
38254.74153088191
 31
0.0
  0
LINE
  5
319
330
1D
100
AcDbEntity
  8
_0-0_0
  6
Continuous
 62
     7
100
AcDbLine
 10
40114.39428069841
 20
38254.74153088191
 30
0.0
 11
38314.43431349824
 21
38254.74153088191
 31
0.0
  0
LINE
  5
31A
330
1D
100
AcDbEntity
  8
_0-0_0
  6
Continuous
 62
     7
100
AcDbLine
 10
38314.43431349824
 20
38254.74153088191
 30
0.0
 11
38314.43431349824
 21
38322.35363713578
 31
0.0
  0
LINE
  5
31B
330
1D
100
AcDbEntity
  8
_0-0_0
  6
Continuous
 62
     7
100
AcDbLine
 10
38314.43431349824
 20
38395.76106678284
 30
0.0
 11
40114.39428069841
 21
38395.76106678284
 31
0.0
  0
LINE
  5
31C
330
1D
100
AcDbEntity
  8
_0-0_0
  6
Continuous
 62
     7
100
AcDbLine
 10
40114.39428069841
 20
38395.76106678284
 30
0.0
 11
40114.39428069841
 21
38328.14896052897
 31
0.0
  0
LINE
  5
31D
330
1D
100
AcDbEntity
  8
_0-0_0
  6
Continuous
 62
     7
100
AcDbLine
 10
40114.39428069841
 20
38328.14896052897
 30
0.0
 11
38314.43431349824
 21
38328.14896052897
 31
0.0
  0
LINE
  5
31E
330
1D
100
AcDbEntity
  8
_0-0_0
  6
Continuous
 62
     7
100
AcDbLine
 10
38314.43431349824
 20
38328.14896052897
 30
0.0
 11
38314.43431349824
 21
38395.76106678284
 31
0.0
  0
INSERT
  5
31F
330
1D
100
AcDbEntity
  8
_0-0_0
100
AcDbBlockReference
  2
-040-繧_繝_繝_繝__5-1
 10
39853.9306471503
 20
38387.02306217139
 30
0.0
  0
LINE
  5
320
330
1D
100
AcDbEntity
  8
_0-0_0
  6
Continuous
 62
     7
100
AcDbLine
 10
40118.43431349823
 20
39705.98144160333
 30
0.0
 11
40124.43431349824
 21
39705.98144160333
 31
0.0
  0
LINE
  5
321
330
1D
100
AcDbEntity
  8
_0-0_0
  6
Continuous
 62
     7
100
AcDbLine
 10
40124.43431349824
 20
39705.98144160333
 30
0.0
 11
40124.43431349824
 21
39091.95612116126
 31
0.0
  0
LINE
  5
322
330
1D
100
AcDbEntity
  8
_0-0_0
  6
Continuous
 62
     7
100
AcDbLine
 10
40124.43431349824
 20
39091.95612116126
 30
0.0
 11
40118.43431349823
 21
39091.95612116126
 31
0.0
  0
LINE
  5
323
330
1D
100
AcDbEntity
  8
_0-0_0
  6
Continuous
 62
     7
100
AcDbLine
 10
40118.43431349823
 20
39091.95612116126
 30
0.0
 11
40118.43431349823
 21
39705.98144160333
 31
0.0
  0
LINE
  5
324
330
1D
100
AcDbEntity
  8
_0-0_0
  6
Continuous
 62
     7
100
AcDbLine
 10
40114.44281617864
 20
39649.24074782999
 30
0.0
 11
38314.44281617864
 21
39649.24074782999
 31
0.0
  0
LINE
  5
325
330
1D
100
AcDbEntity
  8
_0-0_0
  6
Continuous
 62
     7
100
AcDbLine
 10
38315.03828338173
 20
39179.19456738851
 30
0.0
 11
40115.03828338172
 21
39179.19456738851
 31
0.0
  0
LINE
  5
326
330
1D
100
AcDbEntity
  8
_0-0_0
  6
Continuous
 62
     7
100
AcDbLine
 10
40115.03828338172
 20
39179.19456738851
 30
0.0
 11
40115.03828338172
 21
39109.28779758074
 31
0.0
  0
LINE
  5
327
330
1D
100
AcDbEntity
  8
_0-0_0
  6
Continuous
 62
     7
100
AcDbLine
 10
40115.03828338172
 20
39109.28779758074
 30
0.0
 11
38315.03828338173
 21
39109.28779758074
 31
0.0
  0
LINE
  5
328
330
1D
100
AcDbEntity
  8
_0-0_0
  6
Continuous
 62
     7
100
AcDbLine
 10
38315.03828338173
 20
39109.28779758074
 30
0.0
 11
38315.03828338173
 21
39179.19456738851
 31
0.0
  0
LINE
  5
329
330
1D
100
AcDbEntity
  8
_0-0_0
  6
Continuous
 62
     7
100
AcDbLine
 10
38315.03828338173
 20
39254.09331176441
 30
0.0
 11
40115.03828338172
 21
39254.09331176441
 31
0.0
  0
LINE
  5
32A
330
1D
100
AcDbEntity
  8
_0-0_0
  6
Continuous
 62
     7
100
AcDbLine
 10
40115.03828338172
 20
39254.09331176441
 30
0.0
 11
40115.03828338172
 21
39184.18791241358
 31
0.0
  0
LINE
  5
32B
330
1D
100
AcDbEntity
  8
_0-0_0
  6
Continuous
 62
     7
100
AcDbLine
 10
40115.03828338172
 20
39184.18791241358
 30
0.0
 11
38315.03828338173
 21
39184.18791241358
 31
0.0
  0
LINE
  5
32C
330
1D
100
AcDbEntity
  8
_0-0_0
  6
Continuous
 62
     7
100
AcDbLine
 10
38315.03828338173
 20
39184.18791241358
 30
0.0
 11
38315.03828338173
 21
39254.09331176441
 31
0.0
  0
LINE
  5
32D
330
1D
100
AcDbEntity
  8
_0-0_0
  6
Continuous
 62
     7
100
AcDbLine
 10
38315.03828338173
 20
39328.99342659724
 30
0.0
 11
40115.03828338172
 21
39328.99342659724
 31
0.0
  0
LINE
  5
32E
330
1D
100
AcDbEntity
  8
_0-0_0
  6
Continuous
 62
     7
100
AcDbLine
 10
40115.03828338172
 20
39328.99342659724
 30
0.0
 11
40115.03828338172
 21
39259.08665678947
 31
0.0
  0
LINE
  5
32F
330
1D
100
AcDbEntity
  8
_0-0_0
  6
Continuous
 62
     7
100
AcDbLine
 10
40115.03828338172
 20
39259.08665678947
 30
0.0
 11
38315.03828338173
 21
39259.08665678947
 31
0.0
  0
LINE
  5
330
330
1D
100
AcDbEntity
  8
_0-0_0
  6
Continuous
 62
     7
100
AcDbLine
 10
38315.03828338173
 20
39259.08665678947
 30
0.0
 11
38315.03828338173
 21
39328.99342659724
 31
0.0
  0
LINE
  5
331
330
1D
100
AcDbEntity
  8
_0-0_0
  6
Continuous
 62
     7
100
AcDbLine
 10
38315.03828338173
 20
39403.89354575108
 30
0.0
 11
40115.03828338172
 21
39403.89354575108
 31
0.0
  0
LINE
  5
332
330
1D
100
AcDbEntity
  8
_0-0_0
  6
Continuous
 62
     7
100
AcDbLine
 10
40115.03828338172
 20
39403.89354575108
 30
0.0
 11
40115.03828338172
 21
39333.98677162231
 31
0.0
  0
LINE
  5
333
330
1D
100
AcDbEntity
  8
_0-0_0
  6
Continuous
 62
     7
100
AcDbLine
 10
40115.03828338172
 20
39333.98677162231
 30
0.0
 11
38315.03828338173
 21
39333.98677162231
 31
0.0
  0
LINE
  5
334
330
1D
100
AcDbEntity
  8
_0-0_0
  6
Continuous
 62
     7
100
AcDbLine
 10
38315.03828338173
 20
39333.98677162231
 30
0.0
 11
38315.03828338173
 21
39403.89354575108
 31
0.0
  0
LINE
  5
335
330
1D
100
AcDbEntity
  8
_0-0_0
  6
Continuous
 62
     7
100
AcDbLine
 10
38315.03828338173
 20
39478.74755709901
 30
0.0
 11
40115.03828338172
 21
39478.74755709901
 31
0.0
  0
LINE
  5
336
330
1D
100
AcDbEntity
  8
_0-0_0
  6
Continuous
 62
     7
100
AcDbLine
 10
40115.03828338172
 20
39478.74755709901
 30
0.0
 11
40115.03828338172
 21
39408.88688645514
 31
0.0
  0
LINE
  5
337
330
1D
100
AcDbEntity
  8
_0-0_0
  6
Continuous
 62
     7
100
AcDbLine
 10
40115.03828338172
 20
39408.88688645514
 30
0.0
 11
38315.03828338173
 21
39408.88688645514
 31
0.0
  0
LINE
  5
338
330
1D
100
AcDbEntity
  8
_0-0_0
  6
Continuous
 62
     7
100
AcDbLine
 10
38315.03828338173
 20
39408.88688645514
 30
0.0
 11
38315.03828338173
 21
39478.74755709901
 31
0.0
  0
LINE
  5
339
330
1D
100
AcDbEntity
  8
_0-0_0
  6
Continuous
 62
     7
100
AcDbLine
 10
40058.43431349823
 20
39611.78995435591
 30
0.0
 11
40118.43431349823
 21
39611.78995435591
 31
0.0
  0
LINE
  5
33A
330
1D
100
AcDbEntity
  8
_0-0_0
  6
Continuous
 62
     7
100
AcDbLine
 10
40118.43431349823
 20
39611.78995435591
 30
0.0
 11
40118.43431349823
 21
39091.95612116126
 31
0.0
  0
LINE
  5
33B
330
1D
100
AcDbEntity
  8
_0-0_0
  6
Continuous
 62
     7
100
AcDbLine
 10
40118.43431349823
 20
39091.95612116126
 30
0.0
 11
40058.43431349823
 21
39091.95612116126
 31
0.0
  0
LINE
  5
33C
330
1D
100
AcDbEntity
  8
_0-0_0
  6
Continuous
 62
     7
100
AcDbLine
 10
40058.43431349823
 20
39091.95612116126
 30
0.0
 11
40058.43431349823
 21
39611.78995435591
 31
0.0
  0
LINE
  5
33D
330
1D
100
AcDbEntity
  8
_0-0_0
  6
Continuous
 62
     7
100
AcDbLine
 10
38310.45131885905
 20
39611.78995435591
 30
0.0
 11
38370.45131885905
 21
39611.78995435591
 31
0.0
  0
LINE
  5
33E
330
1D
100
AcDbEntity
  8
_0-0_0
  6
Continuous
 62
     7
100
AcDbLine
 10
38370.45131885905
 20
39611.78995435591
 30
0.0
 11
38370.45131885905
 21
39091.95612116126
 31
0.0
  0
LINE
  5
33F
330
1D
100
AcDbEntity
  8
_0-0_0
  6
Continuous
 62
     7
100
AcDbLine
 10
38370.45131885905
 20
39091.95612116126
 30
0.0
 11
38310.45131885905
 21
39091.95612116126
 31
0.0
  0
LINE
  5
340
330
1D
100
AcDbEntity
  8
_0-0_0
  6
Continuous
 62
     7
100
AcDbLine
 10
38310.45131885905
 20
39091.95612116126
 30
0.0
 11
38310.45131885905
 21
39611.78995435591
 31
0.0
  0
LINE
  5
341
330
1D
100
AcDbEntity
  8
_0-0_0
  6
Continuous
 62
     7
100
AcDbLine
 10
39393.66329219138
 20
39116.61936951451
 30
0.0
 11
39439.3641818549
 21
39037.46310666619
 31
0.0
  0
LINE
  5
342
330
1D
100
AcDbEntity
  8
_0-0_0
  6
Continuous
 62
     7
100
AcDbLine
 10
39439.3641818549
 20
39037.46310666619
 30
0.0
 11
39545.34842842284
 21
39037.46310666619
 31
0.0
  0
LINE
  5
343
330
1D
100
AcDbEntity
  8
_0-0_0
  6
繝_繧_繝_繧_繧_繝__24
 62
     7
100
AcDbLine
 10
40118.43431349823
 20
38419.52052875756
 30
0.0
 11
39240.15468536097
 21
38419.52052875756
 31
0.0
  0
LINE
  5
344
330
1D
100
AcDbEntity
  8
_0-0_0
  6
繝_繧_繝_繧_繧_繝__24
 62
     7
100
AcDbLine
 10
40058.43431349823
 20
38419.52052875756
 30
0.0
 11
40058.43431349823
 21
38201.25501081428
 31
0.0
  0
LINE
  5
345
330
1D
100
AcDbEntity
  8
_0-0_0
  6
繝_繧_繝_繧_繧_繝__24
 62
     7
100
AcDbLine
 10
39240.15468536098
 20
38419.52052875756
 30
0.0
 11
39240.1546197628
 21
38104.39404146502
 31
0.0
  0
LINE
  5
346
330
1D
100
AcDbEntity
  8
_0-0_0
  6
繝_繧_繝_繧_繧_繝__24
 62
     7
100
AcDbLine
 10
39190.1546844906
 20
38419.52054157442
 30
0.0
 11
39190.15460371198
 21
38104.39404146502
 31
0.0
  0
LINE
  5
347
330
1D
100
AcDbEntity
  8
_0-0_0
  6
繝_繧_繝_繧_繧_繝__24
 62
     7
100
AcDbLine
 10
40058.43431349823
 20
39140.6080249318
 30
0.0
 11
39244.44141938627
 21
39139.97604454016
 31
0.0
  0
LINE
  5
348
330
1D
100
AcDbEntity
  8
_0-0_0
  6
繝_繧_繝_繧_繧_繝__24
 62
     7
100
AcDbLine
 10
40118.43431349823
 20
39121.31349796517
 30
0.0
 11
38310.44004661963
 21
39121.31349796517
 31
0.0
  0
LINE
  5
349
330
1D
100
AcDbEntity
  8
_0-0_0
  6
繝_繧_繝_繧_繧_繝__24
 62
     7
100
AcDbLine
 10
40118.43431349823
 20
39677.25896615423
 30
0.0
 11
39244.42393648718
 21
39677.25896615423
 31
0.0
  0
LINE
  5
34A
330
1D
100
AcDbEntity
  8
_0-0_0
  6
Continuous
 62
     7
100
AcDbLine
 10
38366.90559045056
 20
38347.60045466238
 30
0.0
 11
38562.62351667036
 21
38750.3435342522
 31
0.0
  0
LINE
  5
34B
330
1D
100
AcDbEntity
  8
_0-0_0
  6
Continuous
 62
     7
100
AcDbLine
 10
38562.62351667036
 20
38750.3435342522
 30
0.0
 11
38642.62351667036
 21
38750.3435342522
 31
0.0
  0
LINE
  5
34C
330
1D
100
AcDbEntity
  8
_0-0_0
  6
繝_繧_繝_繧_繧_繝__24
 62
     7
100
AcDbLine
 10
38370.45131885905
 20
39677.89699811719
 30
0.0
 11
38370.36151785948
 21
39153.05251176788
 31
0.0
  0
LINE
  5
34D
330
1D
100
AcDbEntity
  8
_0-0_0
  6
繝_繧_繝_繧_繧_繝__24
 62
     7
100
AcDbLine
 10
38370.36151785948
 20
39140.60493221629
 30
0.0
 11
39184.44421297118
 21
39139.97288210356
 31
0.0
  0
LINE
  5
34E
330
1D
100
AcDbEntity
  8
_0-0_0
  6
繝_繧_繝_繧_繧_繝__24
 62
     7
100
AcDbLine
 10
38314.44281617864
 20
39677.25896615423
 30
0.0
 11
39184.42668341281
 21
39677.25733334485
 31
0.0
  0
LINE
  5
34F
330
1D
100
AcDbEntity
  8
_0-0_0
  6
繝_繧_繝_繧_繧_繝__24
 62
     7
100
AcDbLine
 10
38370.44007022715
 20
38419.52052875756
 30
0.0
 11
38370.44007022715
 21
38207.25501081428
 31
0.0
  0
LINE
  5
350
330
1D
100
AcDbEntity
  8
_0-0_0
  6
Continuous
 62
     7
100
AcDbLine
 10
38474.56366797748
 20
38967.20291518751
 30
0.0
 11
38508.56366797747
 21
38967.20291518751
 31
0.0
  0
LINE
  5
351
330
1D
100
AcDbEntity
  8
_0-0_0
  6
Continuous
 62
     7
100
AcDbLine
 10
38348.93869708643
 20
39111.17859235005
 30
0.0
 11
38475.93639056205
 21
38964.8252899263
 31
0.0
  0
INSERT
  5
352
330
1D
100
AcDbEntity
  8
_0-0_0
100
AcDbBlockReference
  2
-029-繧_繝_繝_繝__6-1
 10
39853.9306471503
 20
38387.02306217139
 30
0.0
  0
INSERT
  5
353
330
1D
100
AcDbEntity
  8
_0-0_0
100
AcDbBlockReference
  2
-030-繧_繝_繝_繝__7-1
 10
39853.9306471503
 20
38387.02306217139
 30
0.0
  0
INSERT
  5
354
330
1D
100
AcDbEntity
  8
_0-0_0
100
AcDbBlockReference
  2
-031-繧_繝_繝_繝__8-1
 10
39853.9306471503
 20
38387.02306217139
 30
0.0
  0
LINE
  5
355
330
1D
100
AcDbEntity
  8
_0-0_0
  6
Continuous
 62
     7
100
AcDbLine
 10
40058.43431349823
 20
39704.85297417722
 30
0.0
 11
40058.43431349823
 21
39706.11023252957
 31
0.0
  0
LINE
  5
356
330
1D
100
AcDbEntity
  8
_0-0_0
  6
Continuous
 62
     7
100
AcDbLine
 10
40058.43431349823
 20
39706.11023252957
 30
0.0
 11
40118.43431349823
 21
39706.11023252957
 31
0.0
  0
LINE
  5
357
330
1D
100
AcDbEntity
  8
_0-0_0
  6
Continuous
 62
     7
100
AcDbLine
 10
40118.43431349823
 20
39706.11023252957
 30
0.0
 11
40118.43431349823
 21
39687.88305665268
 31
0.0
  0
LINE
  5
358
330
1D
100
AcDbEntity
  8
_0-0_0
  6
Continuous
 62
     7
100
AcDbLine
 10
37887.63777641601
 20
37137.96972883806
 30
0.0
 11
41744.87367657739
 21
37137.96972883806
 31
0.0
  0
LINE
  5
359
330
1D
100
AcDbEntity
  8
_0-0_0
  6
Continuous
 62
     7
100
AcDbLine
 10
41744.87367657739
 20
37137.96972883806
 30
0.0
 11
41744.87367657739
 21
37017.96972883806
 31
0.0
  0
LINE
  5
35A
330
1D
100
AcDbEntity
  8
_0-0_0
  6
Continuous
 62
     7
100
AcDbLine
 10
41744.87367657739
 20
37017.96972883806
 30
0.0
 11
37887.63777641601
 21
37017.96972883806
 31
0.0
  0
LINE
  5
35B
330
1D
100
AcDbEntity
  8
_0-0_0
  6
Continuous
 62
     7
100
AcDbLine
 10
37887.63777641601
 20
37017.96972883806
 30
0.0
 11
37887.63777641601
 21
37137.96972883806
 31
0.0
  0
LINE
  5
35C
330
1D
100
AcDbEntity
  8
_0-0_0
  6
Continuous
 62
     7
100
AcDbLine
 10
39566.06855640869
 20
37137.96972883806
 30
0.0
 11
39566.06855640869
 21
37017.96972883806
 31
0.0
  0
LINE
  5
35D
330
1D
100
AcDbEntity
  8
_0-0_0
  6
Continuous
 62
     7
100
AcDbLine
 10
41144.06855640869
 20
37137.96972883806
 30
0.0
 11
41144.06855640869
 21
37017.96972883806
 31
0.0
  0
LINE
  5
35E
330
1D
100
AcDbEntity
  8
_0-0_0
  6
Continuous
 62
     7
100
AcDbLine
 10
40840.06855640869
 20
37137.96972883806
 30
0.0
 11
40840.06855640869
 21
37017.96972883806
 31
0.0
  0
LINE
  5
35F
330
1D
100
AcDbEntity
  8
_0-0_0
  6
Continuous
 62
     7
100
AcDbLine
 10
40536.06855640868
 20
37137.96972883806
 30
0.0
 11
40536.06855640868
 21
37017.96972883806
 31
0.0
  0
LINE
  5
360
330
1D
100
AcDbEntity
  8
_0-0_0
  6
Continuous
 62
     7
100
AcDbLine
 10
40536.06855640868
 20
37137.96972883806
 30
0.0
 11
40536.06855640868
 21
37017.96972883806
 31
0.0
  0
LINE
  5
361
330
1D
100
AcDbEntity
  8
_0-0_0
  6
Continuous
 62
     7
100
AcDbLine
 10
39890.0685564087
 20
37137.96972883806
 30
0.0
 11
39890.0685564087
 21
37017.96972883806
 31
0.0
  0
LINE
  5
362
330
1D
100
AcDbEntity
  8
_0-0_0
  6
Continuous
 62
     7
100
AcDbLine
 10
40840.06855640869
 20
37137.96972883806
 30
0.0
 11
40840.06855640869
 21
37017.96972883806
 31
0.0
  0
LINE
  5
363
330
1D
100
AcDbEntity
  8
_0-0_0
  6
Continuous
 62
     7
100
AcDbLine
 10
38337.06504661962
 20
37721.46725257426
 30
0.0
 11
38381.07487627981
 21
37765.47708223445
 31
0.0
  0
LINE
  5
364
330
1D
100
AcDbEntity
  8
_0-0_0
  6
Continuous
 62
     7
100
AcDbLine
 10
38381.07487627981
 20
37765.47708223445
 30
0.0
 11
38456.89317645314
 21
37765.47708223445
 31
0.0
  0
INSERT
  5
365
330
1D
100
AcDbEntity
  8
_0-0_0
100
AcDbBlockReference
  2
-032-繧_繝_繝_繝__10-1
 10
39853.9306471503
 20
38387.02306217139
 30
0.0
  0
INSERT
  5
366
330
1D
100
AcDbEntity
  8
_0-0_0
100
AcDbBlockReference
  2
-033-繧_繝_繝_繝__11-1
 10
39853.9306471503
 20
38387.02306217139
 30
0.0
  0
INSERT
  5
367
330
1D
100
AcDbEntity
  8
_0-0_0
100
AcDbBlockReference
  2
-034-繧_繝_繝_繝__12-1
 10
39853.9306471503
 20
38387.02306217139
 30
0.0
  0
INSERT
  5
368
330
1D
100
AcDbEntity
  8
_0-0_0
100
AcDbBlockReference
  2
-035-繧_繝_繝_繝__13-1
 10
39853.9306471503
 20
38387.02306217139
 30
0.0
  0
LINE
  5
369
330
1D
100
AcDbEntity
  8
_0-0_0
  6
Continuous
 62
     7
100
AcDbLine
 10
39397.11561906977
 20
37678.07822143004
 30
0.0
 11
39282.93004932776
 21
37843.42110395381
 31
0.0
  0
ARC
  5
36A
330
1D
100
AcDbEntity
  8
_0-0_0
  6
Continuous
 62
     7
100
AcDbCircle
 10
40995.64661634591
 20
38250.55768950507
 30
0.0
 40
106.0
100
AcDbArc
 50
90.0
 51
180.0
  0
LINE
  5
36B
330
1D
100
AcDbEntity
  8
_0-0_0
  6
Continuous
 62
     7
100
AcDbLine
 10
41407.79736378165
 20
38321.80028212201
 30
0.0
 11
41301.23515791976
 21
38350.55768950507
 31
0.0
  0
LINE
  5
36C
330
1D
100
AcDbEntity
  8
_0-0_0
  6
Continuous
 62
     7
100
AcDbLine
 10
41503.5605644785
 20
38451.6533662844
 30
0.0
 11
41427.92394777815
 21
38124.03518583431
 31
0.0
  0
LINE
  5
36D
330
1D
100
AcDbEntity
  8
_0-0_0
  6
Continuous
 62
     7
100
AcDbLine
 10
41451.41472665019
 20
38470.6268784105
 30
0.0
 11
41499.98330564918
 21
38457.60761768533
 31
0.0
  0
LINE
  5
36E
330
1D
100
AcDbEntity
  8
_0-0_0
  6
Continuous
 62
     7
100
AcDbLine
 10
41376.67955653199
 20
38205.62709338999
 30
0.0
 11
41445.28387350563
 21
38467.06646590861
 31
0.0
  0
LINE
  5
36F
330
1D
100
AcDbEntity
  8
_0-0_0
  6
Continuous
 62
     7
100
AcDbLine
 10
40889.64661634592
 20
38146.20244101936
 30
0.0
 11
41299.24663729282
 21
38145.93244880688
 31
0.0
  0
LINE
  5
370
330
1D
100
AcDbEntity
  8
_0-0_0
  6
Continuous
 62
     7
100
AcDbLine
 10
40935.04968838718
 20
37726.19947479648
 30
0.0
 11
40894.64661634591
 21
37726.19947479648
 31
0.0
  0
LINE
  5
371
330
1D
100
AcDbEntity
  8
_0-0_0
  6
Continuous
 62
     7
100
AcDbLine
 10
40964.7782449179
 20
38034.15297685686
 30
0.0
 11
40940.03066187764
 21
37730.76369608274
 31
0.0
  0
LINE
  5
372
330
1D
100
AcDbEntity
  8
_0-0_0
  6
Continuous
 62
     7
100
AcDbLine
 10
41502.97811867382
 20
37726.19947479648
 30
0.0
 11
41465.09963395121
 21
37726.19947479648
 31
0.0
  0
LINE
  5
373
330
1D
100
AcDbEntity
  8
_0-0_0
  6
Continuous
 62
     7
100
AcDbLine
 10
41427.92394777815
 20
38079.04497496555
 30
0.0
 11
41507.84996899776
 21
37732.3242300682
 31
0.0
  0
ARC
  5
374
330
1D
100
AcDbEntity
  8
_0-0_0
  6
Continuous
 62
     7
100
AcDbCircle
 10
41525.36095425668
 20
38101.54008039993
 30
0.0
 40
100.0
100
AcDbArc
 50
167.0000000000022
 51
192.9999999999967
  0
LINE
  5
375
330
1D
100
AcDbEntity
  8
_0-0_0
  6
Continuous
 62
     7
100
AcDbLine
 10
41319.71002690745
 20
38066.10252586069
 30
0.0
 11
40999.64505935112
 21
38066.10252586069
 31
0.0
  0
LINE
  5
376
330
1D
100
AcDbEntity
  8
_0-0_0
  6
Continuous
 62
     7
100
AcDbLine
 10
40889.64661634592
 20
37731.19947479648
 30
0.0
 11
40889.64661634592
 21
38146.20244101936
 31
0.0
  0
LINE
  5
377
330
1D
100
AcDbEntity
  8
_0-0_0
  6
Continuous
 62
     7
100
AcDbLine
 10
41352.80317705342
 20
38042.49741126669
 30
0.0
 11
41460.37204107321
 21
37729.57163402419
 31
0.0
  0
ARC
  5
378
330
1D
100
AcDbEntity
  8
_0-0_0
  6
Continuous
 62
     7
100
AcDbCircle
 10
40999.64505935112
 20
38031.10252586069
 30
0.0
 40
35.0
100
AcDbArc
 50
90.0
 51
175.0000000000001
  0
ARC
  5
379
330
1D
100
AcDbEntity
  8
_0-0_0
  6
Continuous
 62
     7
100
AcDbCircle
 10
41319.71002690745
 20
38031.10252586069
 30
0.0
 40
35.0000000000002
100
AcDbArc
 50
18.99999999999977
 51
90.0
  0
ARC
  5
37A
330
1D
100
AcDbEntity
  8
_0-0_0
  6
Continuous
 62
     7
100
AcDbCircle
 10
41299.29937013266
 20
38225.93243142717
 30
0.0
 40
79.99999999999983
100
AcDbArc
 50
269.9622328827012
 51
345.2965181066182
  0
ARC
  5
37B
330
1D
100
AcDbEntity
  8
_0-0_0
  6
Continuous
 62
     7
100
AcDbCircle
 10
41498.68871415456
 20
38452.77812155612
 30
0.0
 40
4.999999999999857
100
AcDbArc
 50
347.0000000000023
 51
74.99411248450271
  0
ARC
  5
37C
330
1D
100
AcDbEntity
  8
_0-0_0
  6
Continuous
 62
     7
100
AcDbCircle
 10
40894.64661634591
 20
37731.19947479648
 30
0.0
 40
5.0
100
AcDbArc
 50
180.0
 51
270.0
  0
ARC
  5
37D
330
1D
100
AcDbEntity
  8
_0-0_0
  6
Continuous
 62
     7
100
AcDbCircle
 10
40935.04968838718
 20
37731.19947479648
 30
0.0
 40
5.0
100
AcDbArc
 50
270.0
 51
354.9999999999999
  0
LINE
  5
37E
330
1D
100
AcDbEntity
  8
_0-0_0
  6
Continuous
 62
     7
100
AcDbLine
 10
40895.64661634591
 20
38250.55768950507
 30
0.0
 11
40895.64661634591
 21
38146.20244101936
 31
0.0
  0
LINE
  5
37F
330
1D
100
AcDbEntity
  8
_0-0_0
  6
Continuous
 62
     7
100
AcDbLine
 10
40889.64661634592
 20
38250.55768950507
 30
0.0
 11
40889.64661634592
 21
38146.20244101936
 31
0.0
  0
LINE
  5
380
330
1D
100
AcDbEntity
  8
_0-0_0
  6
Continuous
 62
     7
100
AcDbLine
 10
41463.90793854388
 20
38392.00882960509
 30
0.0
 11
41463.90508356064
 21
38392.00959459555
 31
0.0
  0
LINE
  5
381
330
1D
100
AcDbEntity
  8
_0-0_0
  6
繝_繧_繝_繧_繧_繝__24
 62
     7
100
AcDbLine
 10
40895.64661634591
 20
38146.20244101936
 30
0.0
 11
40895.64661634591
 21
37726.19947479648
 31
0.0
  0
ARC
  5
382
330
1D
100
AcDbEntity
  8
_0-0_0
  6
Continuous
 62
     7
100
AcDbCircle
 10
41465.09963395121
 20
37731.19947479648
 30
0.0
 40
5.000000000000769
100
AcDbArc
 50
199.0000000000016
 51
270.0
  0
ARC
  5
383
330
1D
100
AcDbEntity
  8
_0-0_0
  6
Continuous
 62
     7
100
AcDbCircle
 10
41502.97811867382
 20
37731.19947479648
 30
0.0
 40
5.0
100
AcDbArc
 50
270.0
 51
12.99999999999768
  0
ARC
  5
384
330
1D
100
AcDbEntity
  8
_0-0_0
  6
Continuous
 62
     7
100
AcDbCircle
 10
40894.64661634591
 20
37731.19947479648
 30
0.0
 40
4.999999999999092
100
AcDbArc
 50
179.9999999999947
 51
270.0000000000105
  0
LINE
  5
385
330
1D
100
AcDbEntity
  8
_0-0_0
  6
Continuous
 62
     7
100
AcDbLine
 10
40935.2077179345
 20
37726.19947479648
 30
0.0
 11
40894.64661634591
 21
37726.19947479648
 31
0.0
  0
LINE
  5
386
330
1D
100
AcDbEntity
  8
_0-0_0
  6
Continuous
 62
     7
100
AcDbLine
 10
41465.29824792666
 20
37726.19947479648
 30
0.0
 11
41505.41247709279
 21
37726.19947479648
 31
0.0
  0
LINE
  5
387
330
1D
100
AcDbEntity
  8
_0-0_0
  6
Continuous
 62
     7
100
AcDbLine
 10
41302.03052623109
 20
38356.55768950507
 30
0.0
 11
40995.64661634591
 21
38356.55768950507
 31
0.0
  0
ARC
  5
388
330
1D
100
AcDbEntity
  8
_0-0_0
  6
Continuous
 62
     7
100
AcDbCircle
 10
41450.12013515559
 20
38465.79738228129
 30
0.0
 40
4.999999999999987
100
AcDbArc
 50
74.99411248450268
 51
165.2965181066202
  0
LINE
  5
389
330
1D
100
AcDbEntity
  8
_0-0_0
  6
Continuous
 62
     7
100
AcDbLine
 10
41409.32030104027
 20
38327.60393674377
 30
0.0
 11
41302.03052623109
 21
38356.55768950507
 31
0.0
  0
LINE
  5
38A
330
1D
100
AcDbEntity
  8
_0-0_0
  6
Continuous
 62
     7
100
AcDbLine
 10
41301.23515791976
 20
38350.55768950507
 30
0.0
 11
40995.64661634591
 21
38350.55768950507
 31
0.0
  0
ARC
  5
38B
330
1D
100
AcDbEntity
  8
_0-0_0
  6
Continuous
 62
     7
100
AcDbCircle
 10
40995.64661634591
 20
38250.55768950507
 30
0.0
 40
100.0
100
AcDbArc
 50
90.0
 51
180.0
  0
LINE
  5
38C
330
1D
100
AcDbEntity
  8
_0-0_0
  6
繝_繧_繝_繧_繧_繝__24
 62
     7
100
AcDbLine
 10
40895.64661634591
 20
37730.69947479648
 30
0.0
 11
40935.64661634591
 21
37730.69947479648
 31
0.0
  0
LINE
  5
38D
330
1D
100
AcDbEntity
  8
_0-0_0
  6
繝_繧_繝_繧_繧_繝__24
 62
     7
100
AcDbLine
 10
40935.64661634591
 20
37730.69947479648
 30
0.0
 11
40935.64661634591
 21
37726.19947479648
 31
0.0
  0
LINE
  5
38E
330
1D
100
AcDbEntity
  8
_0-0_0
  6
繝_繧_繝_繧_繧_繝__24
 62
     7
100
AcDbLine
 10
40935.64661634591
 20
37726.19947479648
 30
0.0
 11
40895.64661634591
 21
37726.19947479648
 31
0.0
  0
LINE
  5
38F
330
1D
100
AcDbEntity
  8
_0-0_0
  6
繝_繧_繝_繧_繧_繝__24
 62
     7
100
AcDbLine
 10
40895.64661634591
 20
37726.19947479648
 30
0.0
 11
40895.64661634591
 21
37730.69947479648
 31
0.0
  0
LINE
  5
390
330
1D
100
AcDbEntity
  8
_0-0_0
  6
繝_繧_繝_繧_繧_繝__24
 62
     7
100
AcDbLine
 10
41464.03887631251
 20
37730.69947479648
 30
0.0
 11
41504.03887631251
 21
37730.69947479648
 31
0.0
  0
LINE
  5
391
330
1D
100
AcDbEntity
  8
_0-0_0
  6
繝_繧_繝_繧_繧_繝__24
 62
     7
100
AcDbLine
 10
41504.03887631251
 20
37730.69947479648
 30
0.0
 11
41504.03887631251
 21
37726.19947479648
 31
0.0
  0
LINE
  5
392
330
1D
100
AcDbEntity
  8
_0-0_0
  6
繝_繧_繝_繧_繧_繝__24
 62
     7
100
AcDbLine
 10
41504.03887631251
 20
37726.19947479648
 30
0.0
 11
41464.03887631251
 21
37726.19947479648
 31
0.0
  0
LINE
  5
393
330
1D
100
AcDbEntity
  8
_0-0_0
  6
繝_繧_繝_繧_繧_繝__24
 62
     7
100
AcDbLine
 10
41464.03887631251
 20
37726.19947479648
 30
0.0
 11
41464.03887631251
 21
37730.69947479648
 31
0.0
  0
INSERT
  5
394
330
1D
100
AcDbEntity
  8
_0-0_0
100
AcDbBlockReference
  2
-036-繧_繝_繝_繝__14-1
 10
39853.9306471503
 20
38387.02306217139
 30
0.0
  0
INSERT
  5
395
330
1D
100
AcDbEntity
  8
_0-0_0
100
AcDbBlockReference
  2
-038-繧_繝_繝_繝__16-1
 10
39853.9306471503
 20
38387.02306217139
 30
0.0
  0
LINE
  5
396
330
1D
100
AcDbEntity
  8
_0-0_0
  6
繝_繧_繝_繧_繧_繝__24
 62
     7
100
AcDbLine
 10
38310.44004661963
 20
37732.19947479648
 30
0.0
 11
38370.45131885905
 21
37732.19947479648
 31
0.0
  0
LINE
  5
397
330
1D
100
AcDbEntity
  8
_0-0_0
  6
繝_繧_繝_繧_繧_繝__24
 62
     7
100
AcDbLine
 10
38370.45131885905
 20
37732.19947479648
 30
0.0
 11
38370.45131885905
 21
37726.19947479648
 31
0.0
  0
LINE
  5
398
330
1D
100
AcDbEntity
  8
_0-0_0
  6
繝_繧_繝_繧_繧_繝__24
 62
     7
100
AcDbLine
 10
38370.45131885905
 20
37726.19947479648
 30
0.0
 11
38310.44004661963
 21
37726.19947479648
 31
0.0
  0
LINE
  5
399
330
1D
100
AcDbEntity
  8
_0-0_0
  6
繝_繧_繝_繧_繧_繝__24
 62
     7
100
AcDbLine
 10
38310.44004661963
 20
37726.19947479648
 30
0.0
 11
38310.44004661963
 21
37732.19947479648
 31
0.0
  0
LINE
  5
39A
330
1D
100
AcDbEntity
  8
_0-0_0
  6
繝_繧_繝_繧_繧_繝__24
 62
     7
100
AcDbLine
 10
40058.43431349823
 20
37732.19947479648
 30
0.0
 11
40118.43431349823
 21
37732.19947479648
 31
0.0
  0
LINE
  5
39B
330
1D
100
AcDbEntity
  8
_0-0_0
  6
繝_繧_繝_繧_繧_繝__24
 62
     7
100
AcDbLine
 10
40118.43431349823
 20
37732.19947479648
 30
0.0
 11
40118.43431349823
 21
37726.19947479648
 31
0.0
  0
LINE
  5
39C
330
1D
100
AcDbEntity
  8
_0-0_0
  6
繝_繧_繝_繧_繧_繝__24
 62
     7
100
AcDbLine
 10
40118.43431349823
 20
37726.19947479648
 30
0.0
 11
40058.43431349823
 21
37726.19947479648
 31
0.0
  0
LINE
  5
39D
330
1D
100
AcDbEntity
  8
_0-0_0
  6
繝_繧_繝_繧_繧_繝__24
 62
     7
100
AcDbLine
 10
40058.43431349823
 20
37726.19947479648
 30
0.0
 11
40058.43431349823
 21
37732.19947479648
 31
0.0
  0
LINE
  5
39E
330
1D
100
AcDbEntity
  8
_0-0_0
  6
繝_繧_繝_繧_繧_繝__24
 62
     7
100
AcDbLine
 10
38310.44004661963
 20
39135.95612116126
 30
0.0
 11
38370.45131885905
 21
39135.95612116126
 31
0.0
  0
LINE
  5
39F
330
1D
100
AcDbEntity
  8
_0-0_0
  6
繝_繧_繝_繧_繧_繝__24
 62
     7
100
AcDbLine
 10
38370.45131885905
 20
39135.95612116126
 30
0.0
 11
38370.45131885905
 21
39097.95612116126
 31
0.0
  0
LINE
  5
3A0
330
1D
100
AcDbEntity
  8
_0-0_0
  6
繝_繧_繝_繧_繧_繝__24
 62
     7
100
AcDbLine
 10
38370.45131885905
 20
39097.95612116126
 30
0.0
 11
38310.44004661963
 21
39097.95612116126
 31
0.0
  0
LINE
  5
3A1
330
1D
100
AcDbEntity
  8
_0-0_0
  6
繝_繧_繝_繧_繧_繝__24
 62
     7
100
AcDbLine
 10
38310.44004661963
 20
39097.95612116126
 30
0.0
 11
38310.44004661963
 21
39135.95612116126
 31
0.0
  0
LINE
  5
3A2
330
1D
100
AcDbEntity
  8
_0-0_0
  6
繝_繧_繝_繧_繧_繝__24
 62
     7
100
AcDbLine
 10
40058.43431349823
 20
39135.95612116126
 30
0.0
 11
40118.43431349823
 21
39135.95612116126
 31
0.0
  0
LINE
  5
3A3
330
1D
100
AcDbEntity
  8
_0-0_0
  6
繝_繧_繝_繧_繧_繝__24
 62
     7
100
AcDbLine
 10
40118.43431349823
 20
39135.95612116126
 30
0.0
 11
40118.43431349823
 21
39097.95612116126
 31
0.0
  0
LINE
  5
3A4
330
1D
100
AcDbEntity
  8
_0-0_0
  6
繝_繧_繝_繧_繧_繝__24
 62
     7
100
AcDbLine
 10
40118.43431349823
 20
39097.95612116126
 30
0.0
 11
40058.43431349823
 21
39097.95612116126
 31
0.0
  0
LINE
  5
3A5
330
1D
100
AcDbEntity
  8
_0-0_0
  6
繝_繧_繝_繧_繧_繝__24
 62
     7
100
AcDbLine
 10
40058.43431349823
 20
39097.95612116126
 30
0.0
 11
40058.43431349823
 21
39135.95612116126
 31
0.0
  0
LINE
  5
3A6
330
1D
100
AcDbEntity
  8
_0-0_0
  6
繝_繧_繝_繧_繧_繝__24
 62
     7
100
AcDbLine
 10
39244.44144335576
 20
39677.25896615423
 30
0.0
 11
39244.44141938627
 21
39139.97604454016
 31
0.0
  0
LINE
  5
3A7
330
1D
100
AcDbEntity
  8
_0-0_0
  6
繝_繧_繝_繧_繧_繝__24
 62
     7
100
AcDbLine
 10
39184.44418900153
 20
39677.25896615423
 30
0.0
 11
39184.44421297118
 21
39139.97288210356
 31
0.0
  0
LINE
  5
3A8
330
1D
100
AcDbEntity
  8
_0-0_0
  6
繝_繧_繝_繧_繧_繝__24
 62
     7
100
AcDbLine
 10
40058.43431349823
 20
39676.11023252957
 30
0.0
 11
40058.52411449781
 21
39153.05251176788
 31
0.0
  0
INSERT
  5
3A9
330
1D
100
AcDbEntity
  8
_0-0_0
100
AcDbBlockReference
  2
-039-繧_繝_繝_繝__17-1
 10
39853.9306471503
 20
38387.02306217139
 30
0.0
  0
LINE
  5
3AA
330
1D
100
AcDbEntity
  8
_0-0_0
  6
繝_繧_繝_繧_繧_繝__24
 62
     7
100
AcDbLine
 10
41436.85915964884
 20
37869.53881827727
 30
0.0
 11
41456.17767617463
 21
37874.71519917932
 31
0.0
  0
LINE
  5
3AB
330
1D
100
AcDbEntity
  8
_0-0_0
  6
繝_繧_繝_繧_繧_繝__24
 62
     7
100
AcDbLine
 10
41456.17767617463
 20
37874.71519917932
 30
0.0
 11
41463.9422475277
 21
37845.73742439065
 31
0.0
  0
LINE
  5
3AC
330
1D
100
AcDbEntity
  8
_0-0_0
  6
繝_繧_繝_繧_繧_繝__24
 62
     7
100
AcDbLine
 10
41463.9422475277
 20
37845.73742439065
 30
0.0
 11
41444.62373100193
 21
37840.5610434886
 31
0.0
  0
LINE
  5
3AD
330
1D
100
AcDbEntity
  8
_0-0_0
  6
繝_繧_繝_繧_繧_繝__24
 62
     7
100
AcDbLine
 10
41444.62373100193
 20
37840.5610434886
 30
0.0
 11
41436.85915964884
 21
37869.53881827727
 31
0.0
  0
LINE
  5
3AE
330
1D
100
AcDbEntity
  8
_0-0_0
  6
繝_繧_繝_繧_繧_繝__24
 62
     7
100
AcDbLine
 10
40058.43431349823
 20
39706.11023252957
 30
0.0
 11
40118.43431349823
 21
39706.11023252957
 31
0.0
  0
LINE
  5
3AF
330
1D
100
AcDbEntity
  8
_0-0_0
  6
繝_繧_繝_繧_繧_繝__24
 62
     7
100
AcDbLine
 10
40118.43431349823
 20
39706.11023252957
 30
0.0
 11
40118.43431349823
 21
39666.11023252957
 31
0.0
  0
LINE
  5
3B0
330
1D
100
AcDbEntity
  8
_0-0_0
  6
繝_繧_繝_繧_繧_繝__24
 62
     7
100
AcDbLine
 10
40118.43431349823
 20
39666.11023252957
 30
0.0
 11
40058.43431349823
 21
39666.11023252957
 31
0.0
  0
LINE
  5
3B1
330
1D
100
AcDbEntity
  8
_0-0_0
  6
繝_繧_繝_繧_繧_繝__24
 62
     7
100
AcDbLine
 10
40058.43431349823
 20
39666.11023252957
 30
0.0
 11
40058.43431349823
 21
39706.11023252957
 31
0.0
  0
LINE
  5
3B2
330
1D
100
AcDbEntity
  8
_0-0_0
  6
繝_繧_繝_繧_繧_繝__24
 62
     7
100
AcDbLine
 10
38310.45131885905
 20
39706.11023252957
 30
0.0
 11
38370.45131885905
 21
39706.11023252957
 31
0.0
  0
LINE
  5
3B3
330
1D
100
AcDbEntity
  8
_0-0_0
  6
繝_繧_繝_繧_繧_繝__24
 62
     7
100
AcDbLine
 10
38370.45131885905
 20
39706.11023252957
 30
0.0
 11
38370.45131885905
 21
39666.11023252957
 31
0.0
  0
LINE
  5
3B4
330
1D
100
AcDbEntity
  8
_0-0_0
  6
繝_繧_繝_繧_繧_繝__24
 62
     7
100
AcDbLine
 10
38370.45131885905
 20
39666.11023252957
 30
0.0
 11
38310.45131885905
 21
39666.11023252957
 31
0.0
  0
LINE
  5
3B5
330
1D
100
AcDbEntity
  8
_0-0_0
  6
繝_繧_繝_繧_繧_繝__24
 62
     7
100
AcDbLine
 10
38310.45131885905
 20
39666.11023252957
 30
0.0
 11
38310.45131885905
 21
39706.11023252957
 31
0.0
  0
LINE
  5
3B6
330
1D
100
AcDbEntity
  8
_0-0_0
  6
Continuous
 62
     7
100
AcDbLine
 10
38370.45131885905
 20
39704.85297417722
 30
0.0
 11
38370.45131885905
 21
39706.11023252957
 31
0.0
  0
LINE
  5
3B7
330
1D
100
AcDbEntity
  8
_0-0_0
  6
Continuous
 62
     7
100
AcDbLine
 10
38370.45131885905
 20
39706.11023252957
 30
0.0
 11
38310.45131885905
 21
39706.11023252957
 31
0.0
  0
LINE
  5
3B8
330
1D
100
AcDbEntity
  8
_0-0_0
  6
Continuous
 62
     7
100
AcDbLine
 10
38310.45131885905
 20
39706.11023252957
 30
0.0
 11
38310.45131885905
 21
39687.88305665268
 31
0.0
  0
LINE
  5
3B9
330
1D
100
AcDbEntity
  8
_0-0_0
  6
繝_繧_繝_繧_繧_繝__24
 62
     7
100
AcDbLine
 10
40118.43431349823
 20
38448.49830354624
 30
0.0
 11
38310.45131885905
 21
38448.49830354624
 31
0.0
  0
LINE
  5
3BA
330
1D
100
AcDbEntity
  8
_0-0_0
  6
繝_繧_繝_繧_繧_繝__24
 62
     7
100
AcDbLine
 10
39188.71969836441
 20
38419.52052875756
 30
0.0
 11
38310.45131885905
 21
38419.52052875756
 31
0.0
  0
TEXT
  5
3BB
330
1D
100
AcDbEntity
  8
_0-0_0
 62
     7
100
AcDbText
 10
38518.48033464415
 20
38959.55105341634
 30
0.0
 40
22.32421875
  1
アンカー長穴 15×20
100
AcDbText
  0
TEXT
  5
3BC
330
1D
100
AcDbEntity
  8
_0-0_0
 62
     7
100
AcDbText
 10
39553.24126413729
 20
39025.22090189671
 30
0.0
 40
22.32421875
  1
座板:木粉一体成型アルミ材キアル70×40
100
AcDbText
  0
TEXT
  5
3BD
330
1D
100
AcDbEntity
  8
_0-0_0
 62
     7
100
AcDbText
 10
39954.06855640869
 20
37056.53847883805
 30
0.0
 40
29.765625
  1
キアルベンチ KIB-02 土新建材
100
AcDbText
  0
TEXT
  5
3BE
330
1D
100
AcDbEntity
  8
_0-0_0
 62
     7
100
AcDbText
 10
38672.88858508975
 20
38764.77261713287
 30
0.0
 40
22.32421875
  1
肘掛け:スチールF.Bt6×60曲加工
100
AcDbText
  0
TEXT
  5
3BF
330
1D
100
AcDbEntity
  8
_0-0_0
 62
     7
100
AcDbText
 10
38675.3454844363
 20
38721.1818803563
 30
0.0
 40
22.32421875
  1
ステンシェルFT塗装
100
AcDbText
  0
TEXT
  5
3C0
330
1D
100
AcDbEntity
  8
_0-0_0
 62
     7
100
AcDbText
 10
39541.3281365551
 20
38697.70005357395
 30
0.0
 40
22.32421875
  1
背板:木粉一体成型アルミ材キアル 70×40
100
AcDbText
  0
TEXT
  5
3C1
330
1D
100
AcDbEntity
  8
_0-1_荳_闊_
 62
     7
100
AcDbText
 10
39413.78688783952
 20
37980.37204789984
 30
0.0
 40
22.32421875
  1
受け材:スチールt6×60
100
AcDbText
  0
TEXT
  5
3C2
330
1D
100
AcDbEntity
  8
_0-0_0
 62
     7
100
AcDbText
 10
39416.26424925606
 20
37950.64371090127
 30
0.0
 40
22.32421875
  1
ステンシェルFT塗装
100
AcDbText
  0
TEXT
  5
3C3
330
1D
100
AcDbEntity
  8
_0-0_0
 62
     7
100
AcDbText
 10
38472.38954955146
 20
37757.40952041056
 30
0.0
 40
22.32421875
  1
M8グリップアンカー×4
100
AcDbText
  0
TEXT
  5
3C4
330
1D
100
AcDbEntity
  8
_0-0_0
 62
     7
100
AcDbText
 10
38597.45350467696
 20
37577.14261179501
 30
0.0
 40
22.32421875
  1
基礎コンクリート（別途）
100
AcDbText
  0
TEXT
  5
3C5
330
1D
100
AcDbEntity
  8
_0-0_0
 62
     7
100
AcDbText
 10
39479.88826101596
 20
37619.6379075308
 30
0.0
 40
22.32421875
  1
ステンシェルFT塗装
100
AcDbText
  0
TEXT
  5
3C6
330
1D
100
AcDbEntity
  8
_0-0_0
 62
     7
100
AcDbText
 10
39483.15300750285
 20
37664.50846729003
 30
0.0
 40
22.32421875
  1
貫材:スチール30×20×1.6
100
AcDbText
  0
ENDSEC
  0
SECTION
  2
OBJECTS
  0
DICTIONARY
  5
C
330
0
100
AcDbDictionary
281
     1
  3
ACAD_2007HEADERVARS_RT
350
497
  3
ACAD_CIP_PREVIOUS_PRODUCT_INFO
350
487
  3
ACAD_COLOR
350
480
  3
ACAD_DETAILVIEWSTYLE
350
416
  3
ACAD_GROUP
350
D
  3
ACAD_LAYOUT
350
1A
  3
ACAD_MATERIAL
350
407
  3
ACAD_MLEADERSTYLE
350
40D
  3
ACAD_MLINESTYLE
350
17
  3
ACAD_PLOTSETTINGS
350
19
  3
ACAD_PLOTSTYLENAME
350
E
  3
ACAD_SCALELIST
350
3D8
  3
ACAD_SECTIONVIEWSTYLE
350
417
  3
ACAD_TABLESTYLE
350
40B
  3
ACAD_VISUALSTYLE
350
3EE
  3
ACDB_RECOMPOSE_DATA
350
495
  3
AcDbVariableDictionary
350
411
  3
DWGPROPS
350
496
  0
DICTIONARY
  5
497
102
{ACAD_REACTORS
330
C
102
}
330
C
100
AcDbDictionary
281
     1
  3
INTERFERECOLOR
350
498
  0
XRECORD
  5
487
102
{ACAD_REACTORS
330
C
102
}
330
C
100
AcDbXrecord
280
     1
300
ACD
300
2022
300

  0
DICTIONARY
  5
480
102
{ACAD_REACTORS
330
C
102
}
330
C
100
AcDbDictionary
281
     1
  0
DICTIONARY
  5
416
102
{ACAD_REACTORS
330
C
102
}
330
C
100
AcDbDictionary
281
     1
  3
Imperial24
350
482
  0
DICTIONARY
  5
D
102
{ACAD_REACTORS
330
C
102
}
330
C
100
AcDbDictionary
281
     1
  0
DICTIONARY
  5
1A
102
{ACAD_REACTORS
330
C
102
}
330
C
100
AcDbDictionary
281
     1
  3
Model
350
1E
  3
レイアウト 1
350
1C
  0
DICTIONARY
  5
407
102
{ACAD_REACTORS
330
C
102
}
330
C
100
AcDbDictionary
281
     1
  3
ByBlock
350
409
  3
ByLayer
350
408
  3
Global
350
40A
  0
DICTIONARY
  5
40D
102
{ACAD_REACTORS
330
C
102
}
330
C
100
AcDbDictionary
281
     1
  3
Standard
350
40E
  0
DICTIONARY
  5
17
102
{ACAD_REACTORS
330
C
102
}
330
C
100
AcDbDictionary
281
     1
  3
Standard
350
18
  0
DICTIONARY
  5
19
102
{ACAD_REACTORS
330
C
102
}
330
C
100
AcDbDictionary
281
     1
  0
ACDBDICTIONARYWDFLT
  5
E
102
{ACAD_REACTORS
330
C
102
}
330
C
100
AcDbDictionary
281
     1
  3
ByColor
350
11
  3
Normal
350
F
100
AcDbDictionaryWithDefault
340
F
  0
DICTIONARY
  5
3D8
102
{ACAD_REACTORS
330
C
102
}
330
C
100
AcDbDictionary
281
     1
  3
A0
350
3D9
  3
B7
350
3DA
  3
B8
350
3DB
  3
B9
350
3DC
  3
C0
350
3DD
  3
C1
350
3DE
  3
C2
350
3DF
  3
C3
350
3E0
  3
C4
350
3E1
  3
C5
350
3E2
  3
C6
350
3E3
  3
C7
350
3E4
  3
C8
350
3E5
  3
C9
350
3E6
  3
D0
350
3E7
  3
D1
350
3E8
  3
D2
350
3E9
  0
DICTIONARY
  5
417
102
{ACAD_REACTORS
330
C
102
}
330
C
100
AcDbDictionary
281
     1
  3
Imperial24
350
481
  0
DICTIONARY
  5
40B
102
{ACAD_REACTORS
330
C
102
}
330
C
100
AcDbDictionary
281
     1
  3
Standard
350
40C
  0
DICTIONARY
  5
3EE
102
{ACAD_REACTORS
330
C
102
}
330
C
100
AcDbDictionary
281
     1
  3
2dWireframe
350
3F3
  3
Basic
350
3F6
  3
Brighten
350
3FA
  3
ColorChange
350
3FE
  3
Conceptual
350
3F8
  3
Dim
350
3F9
  3
EdgeColorOff
350
401
  3
Facepattern
350
3FD
  3
Flat
350
3EF
  3
FlatWithEdges
350
3F0
  3
Gouraud
350
3F1
  3
GouraudWithEdges
350
3F2
  3
Hidden
350
3F5
  3
JitterOff
350
3FF
  3
Linepattern
350
3FC
  3
OverhangOff
350
400
  3
Realistic
350
3F7
  3
Shaded
350
406
  3
Shaded with edges
350
405
  3
Shades of Gray
350
402
  3
Sketchy
350
403
  3
Thicken
350
3FB
  3
Wireframe
350
3F4
  3
X-Ray
350
404
  0
XRECORD
  5
495
102
{ACAD_REACTORS
330
C
102
}
330
C
100
AcDbXrecord
280
     1
 90
        1
330
40C
  0
DICTIONARY
  5
411
102
{ACAD_REACTORS
330
C
102
}
330
C
100
AcDbDictionary
281
     1
  3
CANNOSCALE
350
412
  3
CMLEADERSTYLE
350
414
  3
CTABLESTYLE
350
413
  3
CVIEWDETAILSTYLE
350
488
  3
CVIEWSECTIONSTYLE
350
489
  3
DIMASSOC
350
490
  3
HIDETEXT
350
48F
  3
INDEXCTL
350
48E
  3
LAYEREVAL
350
48B
  3
LAYERNOTIFY
350
48C
  3
LIGHTINGUNITS
350
48A
  3
MSLTSCALE
350
415
  3
SOLIDHIST
350
491
  3
SORTENTS
350
48D
  3
XCLIPFRAME
350
442
  0
XRECORD
  5
496
102
{ACAD_REACTORS
330
C
102
}
330
C
100
AcDbXrecord
280
     1
  1
DWGPROPS COOKIE
  2

  3

  4

  6

  7

  8
81901
  9

300
=
301
=
302
=
303
=
304
=
305
=
306
=
307
=
308
=
309
=
 40
0.000982662037037
 41
2459888.846747686
 42
2460176.46244213
  1

 90
        0
  0
XRECORD
  5
498
102
{ACAD_REACTORS
330
497
102
}
330
497
100
AcDbXrecord
280
     1
1004
1800000001000000000000C0000000000000000000000000
  0
ACDBDETAILVIEWSTYLE
  5
482
102
{ACAD_XDICTIONARY
360
4D6
102
}
102
{ACAD_REACTORS
330
416
102
}
330
416
100
AcDbModelDocViewStyle
 70
     0
  3
Imperial24
290
     0
100
AcDbDetailViewStyle
 70
     0
 71
     0
 90
        3
 71
     1
340
12
 40
0.24
340
0
 40
0.24
300

 40
0.36
280
     3
 71
     2
340
16
 90
       25
 71
     3
340
12
 40
0.24
 90
        1
 40
0.75
 90
        1
300
%<\AcVar ViewType \f "%tc1">% %<\AcVar ViewDetailId>%\PSCALE %<\AcVar ViewScale \f "%sn">%
 71
     4
340
16
 90
       25
340
16
 90
       25
280
     0
  0
LAYOUT
  5
1E
102
{ACAD_XDICTIONARY
360
49B
102
}
102
{ACAD_REACTORS
330
1A
102
}
330
1A
100
AcDbPlotSettings
  1

  2
none_device
  4
ISO_A4_(210.00_x_297.00_MM)
  6

 40
7.5
 41
20.0
 42
7.5
 43
20.0
 44
210.0
 45
297.0
 46
0.0
 47
0.0
 48
0.0
 49
0.0
140
0.0
141
0.0
142
1.0
143
1.0
 70
  1712
 72
     0
 73
     1
 74
     0
  7

 75
     0
147
1.0
148
0.0
149
0.0
100
AcDbLayout
  1
Model
 70
     1
 71
     0
 10
0.0
 20
0.0
 11
12.0
 21
9.0
 12
0.0
 22
0.0
 32
0.0
 14
37887.63777641601
 24
37017.96972883806
 34
0.0
 15
41744.87367657739
 25
39710.27600878132
 35
0.0
146
0.0
 13
0.0
 23
0.0
 33
0.0
 16
1.0
 26
0.0
 36
0.0
 17
0.0
 27
1.0
 37
0.0
 76
     0
330
1D
331
3C7
  0
LAYOUT
  5
1C
102
{ACAD_XDICTIONARY
360
499
102
}
102
{ACAD_REACTORS
330
1A
102
}
330
1A
100
AcDbPlotSettings
  1

  2
none_device
  4
ISO_A4_(210.00_x_297.00_MM)
  6

 40
7.5
 41
20.0
 42
7.5
 43
20.0
 44
210.0
 45
297.0
 46
0.0
 47
0.0
 48
0.0
 49
0.0
140
0.0
141
0.0
142
1.0
143
1.0
 70
   688
 72
     0
 73
     1
 74
     5
  7

 75
    16
147
1.0
148
0.0
149
0.0
100
AcDbLayout
  1
レイアウト 1
 70
     1
 71
     1
 10
0.0
 20
0.0
 11
12.0
 21
9.0
 12
0.0
 22
0.0
 32
0.0
 14
1.000000000000000E+20
 24
1.000000000000000E+20
 34
1.000000000000000E+20
 15
-1.000000000000000E+20
 25
-1.000000000000000E+20
 35
-1.000000000000000E+20
146
0.0
 13
0.0
 23
0.0
 33
0.0
 16
1.0
 26
0.0
 36
0.0
 17
0.0
 27
1.0
 37
0.0
 76
     0
330
1B
  0
MATERIAL
  5
409
102
{ACAD_XDICTIONARY
360
4CF
102
}
102
{ACAD_REACTORS
330
407
102
}
330
407
100
AcDbMaterial
  1
ByBlock
 73
     1
 78
     1
172
     1
176
     1
270
     1
274
     1
  0
MATERIAL
  5
408
102
{ACAD_XDICTIONARY
360
4CD
102
}
102
{ACAD_REACTORS
330
407
102
}
330
407
100
AcDbMaterial
  1
ByLayer
 73
     1
 78
     1
172
     1
176
     1
270
     1
274
     1
  0
MATERIAL
  5
40A
102
{ACAD_XDICTIONARY
360
4D1
102
}
102
{ACAD_REACTORS
330
407
102
}
330
407
100
AcDbMaterial
  1
Global
 73
     1
 78
     1
172
     1
176
     1
270
     1
274
     1
  0
MLEADERSTYLE
  5
40E
102
{ACAD_REACTORS
330
40D
102
}
330
40D
100
AcDbMLeaderStyle
170
     2
171
     1
172
     0
 90
        2
 40
0.0
 41
0.0
173
     1
 91
-1056964608
340
16
 92
       -2
290
     1
 42
0.09
291
     1
 43
0.36
  3
Standard
 44
0.18
300

342
12
174
     1
178
     6
175
     1
176
     0
 93
-1056964608
 45
0.18
292
     0
297
     0
 46
0.18
 94
-1056964608
 47
1.0
 49
1.0
140
1.0
293
     1
141
0.0
294
     1
177
     0
142
1.0
295
     0
296
     0
143
0.125
1001
ACAD_MLEADERVER
1070
     2
  0
MLINESTYLE
  5
18
102
{ACAD_REACTORS
330
17
102
}
330
17
100
AcDbMlineStyle
  2
STANDARD
 70
     0
  3

 62
   256
 51
90.0
 52
90.0
 71
     2
 49
0.5
 62
   256
  6
BYLAYER
 49
-0.5
 62
   256
  6
BYLAYER
  0
ACDBPLACEHOLDER
  5
11
102
{ACAD_REACTORS
330
E
102
}
330
E
  0
ACDBPLACEHOLDER
  5
F
102
{ACAD_REACTORS
330
E
102
}
330
E
  0
SCALE
  5
3D9
102
{ACAD_REACTORS
330
3D8
102
}
330
3D8
100
AcDbScale
 70
     0
300
1:1
140
1.0
141
1.0
290
     1
  0
SCALE
  5
3DA
102
{ACAD_REACTORS
330
3D8
102
}
330
3D8
100
AcDbScale
 70
     0
300
1/128" = 1'-0"
140
0.0078125
141
12.0
290
     0
  0
SCALE
  5
3DB
102
{ACAD_REACTORS
330
3D8
102
}
330
3D8
100
AcDbScale
 70
     0
300
1/64" = 1'-0"
140
0.015625
141
12.0
290
     0
  0
SCALE
  5
3DC
102
{ACAD_REACTORS
330
3D8
102
}
330
3D8
100
AcDbScale
 70
     0
300
1/32" = 1'-0"
140
0.03125
141
12.0
290
     0
  0
SCALE
  5
3DD
102
{ACAD_REACTORS
330
3D8
102
}
330
3D8
100
AcDbScale
 70
     0
300
1/16" = 1'-0"
140
0.0625
141
12.0
290
     0
  0
SCALE
  5
3DE
102
{ACAD_REACTORS
330
3D8
102
}
330
3D8
100
AcDbScale
 70
     0
300
3/32" = 1'-0"
140
0.09375
141
12.0
290
     0
  0
SCALE
  5
3DF
102
{ACAD_REACTORS
330
3D8
102
}
330
3D8
100
AcDbScale
 70
     0
300
1/8" = 1'-0"
140
0.125
141
12.0
290
     0
  0
SCALE
  5
3E0
102
{ACAD_REACTORS
330
3D8
102
}
330
3D8
100
AcDbScale
 70
     0
300
3/16" = 1'-0"
140
0.1875
141
12.0
290
     0
  0
SCALE
  5
3E1
102
{ACAD_REACTORS
330
3D8
102
}
330
3D8
100
AcDbScale
 70
     0
300
1/4" = 1'-0"
140
0.25
141
12.0
290
     0
  0
SCALE
  5
3E2
102
{ACAD_REACTORS
330
3D8
102
}
330
3D8
100
AcDbScale
 70
     0
300
3/8" = 1'-0"
140
0.375
141
12.0
290
     0
  0
SCALE
  5
3E3
102
{ACAD_REACTORS
330
3D8
102
}
330
3D8
100
AcDbScale
 70
     0
300
1/2" = 1'-0"
140
0.5
141
12.0
290
     0
  0
SCALE
  5
3E4
102
{ACAD_REACTORS
330
3D8
102
}
330
3D8
100
AcDbScale
 70
     0
300
3/4" = 1'-0"
140
0.75
141
12.0
290
     0
  0
SCALE
  5
3E5
102
{ACAD_REACTORS
330
3D8
102
}
330
3D8
100
AcDbScale
 70
     0
300
1" = 1'-0"
140
1.0
141
12.0
290
     0
  0
SCALE
  5
3E6
102
{ACAD_REACTORS
330
3D8
102
}
330
3D8
100
AcDbScale
 70
     0
300
1-1/2" = 1'-0"
140
1.5
141
12.0
290
     0
  0
SCALE
  5
3E7
102
{ACAD_REACTORS
330
3D8
102
}
330
3D8
100
AcDbScale
 70
     0
300
3" = 1'-0"
140
3.0
141
12.0
290
     0
  0
SCALE
  5
3E8
102
{ACAD_REACTORS
330
3D8
102
}
330
3D8
100
AcDbScale
 70
     0
300
6" = 1'-0"
140
6.0
141
12.0
290
     0
  0
SCALE
  5
3E9
102
{ACAD_REACTORS
330
3D8
102
}
330
3D8
100
AcDbScale
 70
     0
300
1'-0" = 1'-0"
140
12.0
141
12.0
290
     0
  0
ACDBSECTIONVIEWSTYLE
  5
481
102
{ACAD_XDICTIONARY
360
4D4
102
}
102
{ACAD_REACTORS
330
417
102
}
330
417
100
AcDbModelDocViewStyle
 70
     0
  3
Imperial24
290
     0
100
AcDbSectionViewStyle
 70
     0
 71
     0
 90
       78
 71
     1
340
12
 40
0.24
340
0
340
0
 40
0.24
300
I, O, Q, S, X, Z
 40
0.48
 90
        3
 40
0.18
 90
        1
 71
     2
340
16
 90
       25
340
16
 90
       50
 40
0.24
 40
0.0
 40
0.24
 71
     3
340
12
 40
0.24
 90
        1
 40
0.75
 90
        1
300
%<\AcVar ViewType \f "%tc1">% %<\AcVar ViewSectionStartId>%-%<\AcVar ViewSectionEndId>%\PSCALE %<\AcVar ViewScale \f "%sn">%
 71
     4
300
ANSI31
 40
1.0
 90
        0
290
     0
290
     0
 90
        6
 40
0.0
 40
1.570796326794896
 40
0.2617993877991494
 40
1.308996938995747
 40
-0.2617993877991494
 40
1.832595714594046
  0
TABLESTYLE
  5
40C
102
{ACAD_XDICTIONARY
360
493
102
}
102
{ACAD_REACTORS
330
40B
102
}
330
40B
100
AcDbTableStyle
  3
Standard
 70
     0
 71
     0
 40
0.06
 41
0.06
280
     0
281
     0
  7
STANDARD
140
0.18
170
     2
 62
     0
 63
     7
283
     0
274
    -2
284
     1
 64
     0
275
    -2
285
     1
 65
     0
276
    -2
286
     1
 66
     0
277
    -2
287
     1
 67
     0
278
    -2
288
     1
 68
     0
279
    -2
289
     1
 69
     0
  7
STANDARD
140
0.25
170
     5
 62
     0
 63
     7
283
     0
274
    -2
284
     1
 64
     0
275
    -2
285
     1
 65
     0
276
    -2
286
     1
 66
     0
277
    -2
287
     1
 67
     0
278
    -2
288
     1
 68
     0
279
    -2
289
     1
 69
     0
  7
STANDARD
140
0.18
170
     5
 62
     0
 63
     7
283
     0
274
    -2
284
     1
 64
     0
275
    -2
285
     1
 65
     0
276
    -2
286
     1
 66
     0
277
    -2
287
     1
 67
     0
278
    -2
288
     1
 68
     0
279
    -2
289
     1
 69
     0
  0
VISUALSTYLE
  5
3F3
102
{ACAD_XDICTIONARY
360
4A5
102
}
102
{ACAD_REACTORS
330
3EE
102
}
330
3EE
100
AcDbVisualStyle
  2
2dWireframe
 70
     4
 71
     0
 72
     2
 73
     0
 90
        0
 40
-0.6
 41
-30.0
 62
     5
 63
     7
 74
     1
 91
        4
 64
     7
 65
   257
 75
     1
175
     1
 42
1.0
 92
        0
 66
   257
 43
1.0
 76
     1
 77
     6
 78
     2
 67
     7
 79
     5
170
     0
171
     0
290
     0
174
     0
 93
        1
 44
0.0
173
     0
291
     0
 45
0.0
1001
ACAD
1000
AcDbSavedByObjectVersion
1070
     0
  0
VISUALSTYLE
  5
3F6
102
{ACAD_XDICTIONARY
360
4AB
102
}
102
{ACAD_REACTORS
330
3EE
102
}
330
3EE
100
AcDbVisualStyle
  2
Basic
 70
     7
 71
     1
 72
     0
 73
     1
 90
        0
 40
-0.6
 41
-30.0
 62
     5
 63
     7
 74
     0
 91
        4
 64
     7
 65
   257
 75
     1
175
     1
 42
1.0
 92
        8
 66
     7
 43
1.0
 76
     1
 77
     6
 78
     2
 67
     7
 79
     5
170
     0
171
     0
290
     0
174
     0
 93
        1
 44
0.0
173
     0
291
     1
 45
0.0
1001
ACAD
1000
AcDbSavedByObjectVersion
1070
     0
  0
VISUALSTYLE
  5
3FA
102
{ACAD_XDICTIONARY
360
4B3
102
}
102
{ACAD_REACTORS
330
3EE
102
}
330
3EE
100
AcDbVisualStyle
  2
Brighten
 70
    12
 71
     2
 72
     2
 73
     0
 90
        0
 40
-0.6
 41
-30.0
 62
     5
 63
     7
 74
     1
 91
        4
 64
     7
 65
   257
 75
     1
175
     1
 42
1.0
 92
        8
 66
     7
 43
1.0
 76
     1
 77
     6
 78
     2
 67
     7
 79
     5
170
     0
171
     0
290
     0
174
     0
 93
        1
 44
50.0
173
     0
291
     1
 45
0.0
1001
ACAD
1000
AcDbSavedByObjectVersion
1070
     0
  0
VISUALSTYLE
  5
3FE
102
{ACAD_XDICTIONARY
360
4BB
102
}
102
{ACAD_REACTORS
330
3EE
102
}
330
3EE
100
AcDbVisualStyle
  2
ColorChange
 70
    16
 71
     2
 72
     2
 73
     3
 90
        0
 40
-0.6
 41
-30.0
 62
     5
 63
     8
 74
     1
 91
        4
 64
     7
 65
   257
 75
     1
175
     1
 42
1.0
 92
        8
 66
     8
 43
1.0
 76
     1
 77
     6
 78
     2
 67
     7
 79
     5
170
     0
171
     0
290
     0
174
     0
 93
        1
 44
0.0
173
     0
291
     1
 45
0.0
1001
ACAD
1000
AcDbSavedByObjectVersion
1070
     0
  0
VISUALSTYLE
  5
3F8
102
{ACAD_XDICTIONARY
360
4AF
102
}
102
{ACAD_REACTORS
330
3EE
102
}
330
3EE
100
AcDbVisualStyle
  2
Conceptual
 70
     9
 71
     3
 72
     2
 73
     0
 90
        0
 40
-0.6
 41
-30.0
 62
     5
 63
     7
 74
     2
 91
        2
 64
     7
 65
   257
 75
     1
175
     1
 42
40.0
 92
        8
 66
     7
 43
1.0
 76
     1
 77
     6
 78
     2
 67
     7
 79
     3
170
     0
171
     0
290
     0
174
     0
 93
        1
 44
0.0
173
     0
291
     0
 45
0.0
1001
ACAD
1000
AcDbSavedByObjectVersion
1070
     0
  0
VISUALSTYLE
  5
3F9
102
{ACAD_XDICTIONARY
360
4B1
102
}
102
{ACAD_REACTORS
330
3EE
102
}
330
3EE
100
AcDbVisualStyle
  2
Dim
 70
    11
 71
     2
 72
     2
 73
     0
 90
        0
 40
-0.6
 41
-30.0
 62
     5
 63
     7
 74
     1
 91
        4
 64
     7
 65
   257
 75
     1
175
     1
 42
1.0
 92
        8
 66
     7
 43
1.0
 76
     1
 77
     6
 78
     2
 67
     7
 79
     5
170
     0
171
     0
290
     0
174
     0
 93
        1
 44
-50.0
173
     0
291
     1
 45
0.0
1001
ACAD
1000
AcDbSavedByObjectVersion
1070
     0
  0
VISUALSTYLE
  5
401
102
{ACAD_XDICTIONARY
360
4C1
102
}
102
{ACAD_REACTORS
330
3EE
102
}
330
3EE
100
AcDbVisualStyle
  2
EdgeColorOff
 70
    22
 71
     2
 72
     2
 73
     0
 90
        0
 40
-0.6
 41
-30.0
 62
     5
 63
     7
 74
     1
 91
        4
 64
     7
 65
   257
 75
     1
175
     1
 42
1.0
 92
        8
 66
     7
 43
1.0
 76
     1
 77
     6
 78
     2
 67
     7
 79
     5
170
     0
171
     0
290
     0
174
     0
 93
        1
 44
0.0
173
     0
291
     1
 45
0.0
1001
ACAD
1000
AcDbSavedByObjectVersion
1070
     0
  0
VISUALSTYLE
  5
3FD
102
{ACAD_XDICTIONARY
360
4B9
102
}
102
{ACAD_REACTORS
330
3EE
102
}
330
3EE
100
AcDbVisualStyle
  2
Facepattern
 70
    15
 71
     2
 72
     2
 73
     0
 90
        0
 40
-0.6
 41
-30.0
 62
     5
 63
     7
 74
     1
 91
        4
 64
     7
 65
   257
 75
     1
175
     1
 42
1.0
 92
        8
 66
     7
 43
1.0
 76
     1
 77
     6
 78
     2
 67
     7
 79
     5
170
     0
171
     0
290
     0
174
     0
 93
        1
 44
0.0
173
     0
291
     1
 45
0.0
1001
ACAD
1000
AcDbSavedByObjectVersion
1070
     0
  0
VISUALSTYLE
  5
3EF
102
{ACAD_XDICTIONARY
360
49D
102
}
102
{ACAD_REACTORS
330
3EE
102
}
330
3EE
100
AcDbVisualStyle
  2
Flat
 70
     0
 71
     2
 72
     1
 73
     1
 90
        2
 40
-0.6
 41
30.0
 62
     5
 63
     7
 74
     0
 91
        4
 64
     7
 65
   257
 75
     1
175
     1
 42
1.0
 92
        8
 66
     7
 43
1.0
 76
     1
 77
     6
 78
     2
 67
     7
 79
     5
170
     0
171
     0
290
     0
174
     0
 93
       13
 44
0.0
173
     0
291
     1
 45
0.0
1001
ACAD
1000
AcDbSavedByObjectVersion
1070
     0
  0
VISUALSTYLE
  5
3F0
102
{ACAD_XDICTIONARY
360
49F
102
}
102
{ACAD_REACTORS
330
3EE
102
}
330
3EE
100
AcDbVisualStyle
  2
FlatWithEdges
 70
     1
 71
     2
 72
     1
 73
     1
 90
        2
 40
-0.6
 41
30.0
 62
     5
 63
     7
 74
     1
 91
        4
 64
     7
 65
   257
 75
     1
175
     1
 42
1.0
 92
        0
 66
   257
 43
1.0
 76
     1
 77
     6
 78
     2
 67
     7
 79
     5
170
     0
171
     0
290
     0
174
     0
 93
       13
 44
0.0
173
     0
291
     1
 45
0.0
1001
ACAD
1000
AcDbSavedByObjectVersion
1070
     0
  0
VISUALSTYLE
  5
3F1
102
{ACAD_XDICTIONARY
360
4A1
102
}
102
{ACAD_REACTORS
330
3EE
102
}
330
3EE
100
AcDbVisualStyle
  2
Gouraud
 70
     2
 71
     2
 72
     2
 73
     1
 90
        2
 40
-0.6
 41
30.0
 62
     5
 63
     7
 74
     0
 91
        4
 64
     7
 65
   257
 75
     1
175
     1
 42
1.0
 92
        0
 66
     7
 43
1.0
 76
     1
 77
     6
 78
     2
 67
     7
 79
     5
170
     0
171
     0
290
     0
174
     0
 93
       13
 44
0.0
173
     0
291
     1
 45
0.0
1001
ACAD
1000
AcDbSavedByObjectVersion
1070
     0
  0
VISUALSTYLE
  5
3F2
102
{ACAD_XDICTIONARY
360
4A3
102
}
102
{ACAD_REACTORS
330
3EE
102
}
330
3EE
100
AcDbVisualStyle
  2
GouraudWithEdges
 70
     3
 71
     2
 72
     2
 73
     1
 90
        2
 40
-0.6
 41
30.0
 62
     5
 63
     7
 74
     1
 91
        4
 64
     7
 65
   257
 75
     1
175
     1
 42
1.0
 92
        0
 66
   257
 43
1.0
 76
     1
 77
     6
 78
     2
 67
     7
 79
     5
170
     0
171
     0
290
     0
174
     0
 93
       13
 44
0.0
173
     0
291
     1
 45
0.0
1001
ACAD
1000
AcDbSavedByObjectVersion
1070
     0
  0
VISUALSTYLE
  5
3F5
102
{ACAD_XDICTIONARY
360
4A9
102
}
102
{ACAD_REACTORS
330
3EE
102
}
330
3EE
100
AcDbVisualStyle
  2
Hidden
 70
     6
 71
     1
 72
     2
 73
     2
 90
        0
 40
-0.6
 41
-30.0
 62
     5
 63
     7
 74
     2
 91
        2
 64
     7
 65
   257
 75
     2
175
     1
 42
40.0
 92
        0
 66
   257
 43
1.0
 76
     1
 77
     6
 78
     2
 67
     7
 79
     3
170
     0
171
     0
290
     0
174
     0
 93
        1
 44
0.0
173
     0
291
     0
 45
0.0
1001
ACAD
1000
AcDbSavedByObjectVersion
1070
     0
  0
VISUALSTYLE
  5
3FF
102
{ACAD_XDICTIONARY
360
4BD
102
}
102
{ACAD_REACTORS
330
3EE
102
}
330
3EE
100
AcDbVisualStyle
  2
JitterOff
 70
    20
 71
     2
 72
     2
 73
     0
 90
        0
 40
-0.6
 41
-30.0
 62
     5
 63
     7
 74
     1
 91
        4
 64
     7
 65
   257
 75
     1
175
     1
 42
1.0
 92
       10
 66
     7
 43
1.0
 76
     1
 77
     6
 78
     2
 67
     7
 79
     5
170
     0
171
     0
290
     0
174
     0
 93
        1
 44
0.0
173
     0
291
     1
 45
0.0
1001
ACAD
1000
AcDbSavedByObjectVersion
1070
     0
  0
VISUALSTYLE
  5
3FC
102
{ACAD_XDICTIONARY
360
4B7
102
}
102
{ACAD_REACTORS
330
3EE
102
}
330
3EE
100
AcDbVisualStyle
  2
Linepattern
 70
    14
 71
     2
 72
     2
 73
     0
 90
        0
 40
-0.6
 41
-30.0
 62
     5
 63
     7
 74
     1
 91
        4
 64
     7
 65
   257
 75
     7
175
     7
 42
1.0
 92
        8
 66
     7
 43
1.0
 76
     1
 77
     6
 78
     2
 67
     7
 79
     5
170
     0
171
     0
290
     0
174
     0
 93
        1
 44
0.0
173
     0
291
     1
 45
0.0
1001
ACAD
1000
AcDbSavedByObjectVersion
1070
     0
  0
VISUALSTYLE
  5
400
102
{ACAD_XDICTIONARY
360
4BF
102
}
102
{ACAD_REACTORS
330
3EE
102
}
330
3EE
100
AcDbVisualStyle
  2
OverhangOff
 70
    21
 71
     2
 72
     2
 73
     0
 90
        0
 40
-0.6
 41
-30.0
 62
     5
 63
     7
 74
     1
 91
        4
 64
     7
 65
   257
 75
     1
175
     1
 42
1.0
 92
        9
 66
     7
 43
1.0
 76
     1
 77
     6
 78
     2
 67
     7
 79
     5
170
     0
171
     0
290
     0
174
     0
 93
        1
 44
0.0
173
     0
291
     1
 45
0.0
1001
ACAD
1000
AcDbSavedByObjectVersion
1070
     0
  0
VISUALSTYLE
  5
3F7
102
{ACAD_XDICTIONARY
360
4AD
102
}
102
{ACAD_REACTORS
330
3EE
102
}
330
3EE
100
AcDbVisualStyle
  2
Realistic
 70
     8
 71
     2
 72
     3
 73
     0
 90
        2
 40
-0.6
 41
30.0
 62
     5
 63
     7
 74
     0
 91
        0
 64
     7
 65
   257
 75
     1
175
     1
 42
1.0
 92
        8
 66
   257
 43
1.0
 76
     1
 77
     6
 78
     2
 67
     7
 79
     3
170
     0
171
     0
290
     0
174
     0
 93
       13
 44
0.0
173
     0
291
     0
 45
0.0
1001
ACAD
1000
AcDbSavedByObjectVersion
1070
     0
  0
VISUALSTYLE
  5
406
102
{ACAD_XDICTIONARY
360
4CB
102
}
102
{ACAD_REACTORS
330
3EE
102
}
330
3EE
100
AcDbVisualStyle
  2
Shaded
 70
    27
 71
     2
 72
     2
 73
     1
 90
        2
 40
-0.6
 41
30.0
 62
     5
 63
     7
 74
     0
 91
        4
 64
     7
 65
   257
 75
     1
175
     1
 42
1.0
 92
        8
 66
   257
 43
1.0
 76
     1
 77
     6
 78
     2
 67
   251
 79
     3
170
     0
171
     0
290
     0
174
     0
 93
        5
 44
0.0
173
     0
291
     0
 45
0.0
1001
ACAD
1000
AcDbSavedByObjectVersion
1070
     0
  0
VISUALSTYLE
  5
405
102
{ACAD_XDICTIONARY
360
4C9
102
}
102
{ACAD_REACTORS
330
3EE
102
}
330
3EE
100
AcDbVisualStyle
  2
Shaded with edges
 70
    26
 71
     2
 72
     2
 73
     1
 90
        2
 40
-0.6
 41
30.0
 62
     5
 63
     7
 74
     1
 91
        2
 64
     7
 65
   257
 75
     2
175
     1
 42
1.0
 92
        8
 66
   257
 43
1.0
 76
     1
 77
     6
 78
     2
 67
     7
 79
     3
170
     0
171
     0
290
     0
174
     0
 93
        5
 44
0.0
173
     0
291
     0
 45
0.0
1001
ACAD
1000
AcDbSavedByObjectVersion
1070
     0
  0
VISUALSTYLE
  5
402
102
{ACAD_XDICTIONARY
360
4C3
102
}
102
{ACAD_REACTORS
330
3EE
102
}
330
3EE
100
AcDbVisualStyle
  2
Shades of Gray
 70
    23
 71
     2
 72
     2
 73
     3
 90
        0
 40
-0.6
 41
-30.0
 62
     5
 63
     7
 74
     2
 91
        2
 64
     7
 65
     7
 75
     1
175
     1
 42
40.0
 92
        8
 66
     7
 43
1.0
 76
     1
 77
     6
 78
     2
 67
     7
 79
     3
170
     0
171
     0
290
     0
174
     0
 93
        1
 44
0.0
173
     0
291
     0
 45
0.0
1001
ACAD
1000
AcDbSavedByObjectVersion
1070
     0
  0
VISUALSTYLE
  5
403
102
{ACAD_XDICTIONARY
360
4C5
102
}
102
{ACAD_REACTORS
330
3EE
102
}
330
3EE
100
AcDbVisualStyle
  2
Sketchy
 70
    24
 71
     1
 72
     2
 73
     2
 90
        0
 40
-0.6
 41
-30.0
 62
     5
 63
     7
 74
     2
 91
        2
 64
     7
 65
     7
 75
     1
175
     1
 42
40.0
 92
       11
 66
     7
 43
1.0
 76
     1
 77
     6
 78
     2
 67
     7
 79
     6
170
     0
171
     0
290
     0
174
     0
 93
        1
 44
0.0
173
     0
291
     0
 45
0.0
1001
ACAD
1000
AcDbSavedByObjectVersion
1070
     0
  0
VISUALSTYLE
  5
3FB
102
{ACAD_XDICTIONARY
360
4B5
102
}
102
{ACAD_REACTORS
330
3EE
102
}
330
3EE
100
AcDbVisualStyle
  2
Thicken
 70
    13
 71
     2
 72
     2
 73
     0
 90
        0
 40
-0.6
 41
-30.0
 62
     5
 63
     7
 74
     1
 91
        4
 64
     7
 65
   257
 75
     1
175
     1
 42
1.0
 92
       12
 66
     7
 43
1.0
 76
     1
 77
     6
 78
     2
 67
     7
 79
     5
170
     0
171
     0
290
     0
174
     0
 93
        1
 44
0.0
173
     0
291
     1
 45
0.0
1001
ACAD
1000
AcDbSavedByObjectVersion
1070
     0
  0
VISUALSTYLE
  5
3F4
102
{ACAD_XDICTIONARY
360
4A7
102
}
102
{ACAD_REACTORS
330
3EE
102
}
330
3EE
100
AcDbVisualStyle
  2
Wireframe
 70
     5
 71
     0
 72
     2
 73
     0
 90
        0
 40
-0.6
 41
-30.0
 62
     5
 63
     7
 74
     1
 91
        4
 64
     7
 65
   257
 75
     1
175
     1
 42
1.0
 92
        0
 66
   257
 43
1.0
 76
     1
 77
     6
 78
     2
 67
     7
 79
     5
170
     0
171
     0
290
     0
174
     0
 93
        1
 44
0.0
173
     0
291
     0
 45
0.0
1001
ACAD
1000
AcDbSavedByObjectVersion
1070
     0
  0
VISUALSTYLE
  5
404
102
{ACAD_XDICTIONARY
360
4C7
102
}
102
{ACAD_REACTORS
330
3EE
102
}
330
3EE
100
AcDbVisualStyle
  2
X-Ray
 70
    25
 71
     2
 72
     2
 73
     1
 90
        1
 40
0.5
 41
-30.0
 62
     5
 63
     7
 74
     1
 91
        0
 64
     7
 65
   257
 75
     1
175
     1
 42
1.0
 92
        8
 66
     7
 43
1.0
 76
     1
 77
     6
 78
     2
 67
     7
 79
     3
170
     0
171
     0
290
     0
174
     0
 93
       13
 44
0.0
173
     0
291
     0
 45
0.0
1001
ACAD
1000
AcDbSavedByObjectVersion
1070
     0
  0
DICTIONARYVAR
  5
412
102
{ACAD_REACTORS
330
411
102
}
330
411
100
DictionaryVariables
280
     0
  1
1:1
  0
DICTIONARYVAR
  5
414
102
{ACAD_REACTORS
330
411
102
}
330
411
100
DictionaryVariables
280
     0
  1
STANDARD
  0
DICTIONARYVAR
  5
413
102
{ACAD_REACTORS
330
411
102
}
330
411
100
DictionaryVariables
280
     0
  1
STANDARD
  0
DICTIONARYVAR
  5
488
102
{ACAD_REACTORS
330
411
102
}
330
411
100
DictionaryVariables
280
     0
  1
Imperial24
  0
DICTIONARYVAR
  5
489
102
{ACAD_REACTORS
330
411
102
}
330
411
100
DictionaryVariables
280
     0
  1
Imperial24
  0
DICTIONARYVAR
  5
490
102
{ACAD_REACTORS
330
411
102
}
330
411
100
DictionaryVariables
280
     0
  1
1
  0
DICTIONARYVAR
  5
48F
102
{ACAD_REACTORS
330
411
102
}
330
411
100
DictionaryVariables
280
     0
  1
1
  0
DICTIONARYVAR
  5
48E
102
{ACAD_REACTORS
330
411
102
}
330
411
100
DictionaryVariables
280
     0
  1
0
  0
DICTIONARYVAR
  5
48B
102
{ACAD_REACTORS
330
411
102
}
330
411
100
DictionaryVariables
280
     0
  1
0
  0
DICTIONARYVAR
  5
48C
102
{ACAD_REACTORS
330
411
102
}
330
411
100
DictionaryVariables
280
     0
  1
0
  0
DICTIONARYVAR
  5
48A
102
{ACAD_REACTORS
330
411
102
}
330
411
100
DictionaryVariables
280
     0
  1
2
  0
DICTIONARYVAR
  5
415
102
{ACAD_REACTORS
330
411
102
}
330
411
100
DictionaryVariables
280
     0
  1
0
  0
DICTIONARYVAR
  5
491
102
{ACAD_REACTORS
330
411
102
}
330
411
100
DictionaryVariables
280
     0
  1
1
  0
DICTIONARYVAR
  5
48D
102
{ACAD_REACTORS
330
411
102
}
330
411
100
DictionaryVariables
280
     0
  1
127
  0
DICTIONARYVAR
  5
442
102
{ACAD_REACTORS
330
411
102
}
330
411
100
DictionaryVariables
280
     0
  1
0
  0
DICTIONARY
  5
4D6
330
482
100
AcDbDictionary
280
     1
281
     1
  3
ACAD_XREC_ROUNDTRIP
360
4D7
  0
DICTIONARY
  5
49B
330
1E
100
AcDbDictionary
280
     1
281
     1
  3
ACAD_XREC_ROUNDTRIP
360
49C
  0
DICTIONARY
  5
499
330
1C
100
AcDbDictionary
280
     1
281
     1
  3
ACAD_XREC_ROUNDTRIP
360
49A
  0
DICTIONARY
  5
4CF
330
409
100
AcDbDictionary
280
     1
281
     1
  3
ACAD_XREC_ROUNDTRIP
360
4D0
  0
DICTIONARY
  5
4CD
330
408
100
AcDbDictionary
280
     1
281
     1
  3
ACAD_XREC_ROUNDTRIP
360
4CE
  0
DICTIONARY
  5
4D1
330
40A
100
AcDbDictionary
280
     1
281
     1
  3
ACAD_XREC_ROUNDTRIP
360
4D2
  0
DICTIONARY
  5
4D4
330
481
100
AcDbDictionary
280
     1
281
     1
  3
ACAD_XREC_ROUNDTRIP
360
4D5
  0
DICTIONARY
  5
493
330
40C
100
AcDbDictionary
280
     1
281
     1
  3
ACAD_ROUNDTRIP_2008_TABLESTYLE_CELLSTYLEMAP
360
494
  3
ACAD_XREC_ROUNDTRIP
360
4D3
  0
DICTIONARY
  5
4A5
330
3F3
100
AcDbDictionary
280
     1
281
     1
  3
ACAD_XREC_ROUNDTRIP
360
4A6
  0
DICTIONARY
  5
4AB
330
3F6
100
AcDbDictionary
280
     1
281
     1
  3
ACAD_XREC_ROUNDTRIP
360
4AC
  0
DICTIONARY
  5
4B3
330
3FA
100
AcDbDictionary
280
     1
281
     1
  3
ACAD_XREC_ROUNDTRIP
360
4B4
  0
DICTIONARY
  5
4BB
330
3FE
100
AcDbDictionary
280
     1
281
     1
  3
ACAD_XREC_ROUNDTRIP
360
4BC
  0
DICTIONARY
  5
4AF
330
3F8
100
AcDbDictionary
280
     1
281
     1
  3
ACAD_XREC_ROUNDTRIP
360
4B0
  0
DICTIONARY
  5
4B1
330
3F9
100
AcDbDictionary
280
     1
281
     1
  3
ACAD_XREC_ROUNDTRIP
360
4B2
  0
DICTIONARY
  5
4C1
330
401
100
AcDbDictionary
280
     1
281
     1
  3
ACAD_XREC_ROUNDTRIP
360
4C2
  0
DICTIONARY
  5
4B9
330
3FD
100
AcDbDictionary
280
     1
281
     1
  3
ACAD_XREC_ROUNDTRIP
360
4BA
  0
DICTIONARY
  5
49D
330
3EF
100
AcDbDictionary
280
     1
281
     1
  3
ACAD_XREC_ROUNDTRIP
360
49E
  0
DICTIONARY
  5
49F
330
3F0
100
AcDbDictionary
280
     1
281
     1
  3
ACAD_XREC_ROUNDTRIP
360
4A0
  0
DICTIONARY
  5
4A1
330
3F1
100
AcDbDictionary
280
     1
281
     1
  3
ACAD_XREC_ROUNDTRIP
360
4A2
  0
DICTIONARY
  5
4A3
330
3F2
100
AcDbDictionary
280
     1
281
     1
  3
ACAD_XREC_ROUNDTRIP
360
4A4
  0
DICTIONARY
  5
4A9
330
3F5
100
AcDbDictionary
280
     1
281
     1
  3
ACAD_XREC_ROUNDTRIP
360
4AA
  0
DICTIONARY
  5
4BD
330
3FF
100
AcDbDictionary
280
     1
281
     1
  3
ACAD_XREC_ROUNDTRIP
360
4BE
  0
DICTIONARY
  5
4B7
330
3FC
100
AcDbDictionary
280
     1
281
     1
  3
ACAD_XREC_ROUNDTRIP
360
4B8
  0
DICTIONARY
  5
4BF
330
400
100
AcDbDictionary
280
     1
281
     1
  3
ACAD_XREC_ROUNDTRIP
360
4C0
  0
DICTIONARY
  5
4AD
330
3F7
100
AcDbDictionary
280
     1
281
     1
  3
ACAD_XREC_ROUNDTRIP
360
4AE
  0
DICTIONARY
  5
4CB
330
406
100
AcDbDictionary
280
     1
281
     1
  3
ACAD_XREC_ROUNDTRIP
360
4CC
  0
DICTIONARY
  5
4C9
330
405
100
AcDbDictionary
280
     1
281
     1
  3
ACAD_XREC_ROUNDTRIP
360
4CA
  0
DICTIONARY
  5
4C3
330
402
100
AcDbDictionary
280
     1
281
     1
  3
ACAD_XREC_ROUNDTRIP
360
4C4
  0
DICTIONARY
  5
4C5
330
403
100
AcDbDictionary
280
     1
281
     1
  3
ACAD_XREC_ROUNDTRIP
360
4C6
  0
DICTIONARY
  5
4B5
330
3FB
100
AcDbDictionary
280
     1
281
     1
  3
ACAD_XREC_ROUNDTRIP
360
4B6
  0
DICTIONARY
  5
4A7
330
3F4
100
AcDbDictionary
280
     1
281
     1
  3
ACAD_XREC_ROUNDTRIP
360
4A8
  0
DICTIONARY
  5
4C7
330
404
100
AcDbDictionary
280
     1
281
     1
  3
ACAD_XREC_ROUNDTRIP
360
4C8
  0
XRECORD
  5
4D7
102
{ACAD_REACTORS
330
4D6
102
}
330
4D6
100
AcDbXrecord
280
     1
102
DISPLAYNAME
  1
Imperial24
102
FLAGS
 90
        0
  0
XRECORD
  5
49C
102
{ACAD_REACTORS
330
49B
102
}
330
49B
100
AcDbXrecord
280
     1
102
SHADEPLOT
 70
     0
102
SHADEPLOTRESLEVEL
 70
     2
102
SHADEPLOTCUSTOMDPI
 70
   300
  0
XRECORD
  5
49A
102
{ACAD_REACTORS
330
499
102
}
330
499
100
AcDbXrecord
280
     1
102
SHADEPLOT
 70
     0
102
SHADEPLOTRESLEVEL
 70
     2
102
SHADEPLOTCUSTOMDPI
 70
   300
  0
XRECORD
  5
4D0
102
{ACAD_REACTORS
330
4CF
102
}
330
4CF
100
AcDbXrecord
280
     1
102
MATERIAL
148
0.0
149
0.0
149
0.0
 93
        0
 94
      127
282
     0
 72
     1
 77
     1
171
     1
175
     1
179
     1
273
     0
  0
XRECORD
  5
4CE
102
{ACAD_REACTORS
330
4CD
102
}
330
4CD
100
AcDbXrecord
280
     1
102
MATERIAL
148
0.0
149
0.0
149
0.0
 93
        0
 94
      127
282
     0
 72
     1
 77
     1
171
     1
175
     1
179
     1
273
     0
  0
XRECORD
  5
4D2
102
{ACAD_REACTORS
330
4D1
102
}
330
4D1
100
AcDbXrecord
280
     1
102
MATERIAL
148
0.0
149
0.0
149
0.0
 93
        0
 94
      127
282
     0
 72
     1
 77
     1
171
     1
175
     1
179
     1
273
     0
  0
XRECORD
  5
4D5
102
{ACAD_REACTORS
330
4D4
102
}
330
4D4
100
AcDbXrecord
280
     1
102
DISPLAYNAME
  1
Imperial24
102
FLAGS
 90
        0
  0
CELLSTYLEMAP
  5
494
102
{ACAD_REACTORS
330
493
102
}
330
493
100
AcDbCellStyleMap
 90
        3
300
CELLSTYLE
  1
TABLEFORMAT_BEGIN
 90
        5
170
     1
 91
        0
 92
    32768
 62
   257
 93
        1
300
CONTENTFORMAT
  1
CONTENTFORMAT_BEGIN
 90
        0
 91
        0
 92
      512
 93
        0
300

 40
0.0
140
1.0
 94
        5
 62
     0
340
12
144
0.25
309
CONTENTFORMAT_END
171
     1
301
MARGIN
  1
CELLMARGIN_BEGIN
 40
0.06
 40
0.06
 40
0.06
 40
0.06
 40
0.06
 40
0.06
309
CELLMARGIN_END
 94
        6
 95
        1
302
GRIDFORMAT
  1
GRIDFORMAT_BEGIN
 90
        0
 91
        1
 62
     0
 92
       -2
340
14
 93
        0
 40
0.045
309
GRIDFORMAT_END
 95
        2
302
GRIDFORMAT
  1
GRIDFORMAT_BEGIN
 90
        0
 91
        1
 62
     0
 92
       -2
340
14
 93
        0
 40
0.045
309
GRIDFORMAT_END
 95
        4
302
GRIDFORMAT
  1
GRIDFORMAT_BEGIN
 90
        0
 91
        1
 62
     0
 92
       -2
340
14
 93
        0
 40
0.045
309
GRIDFORMAT_END
 95
        8
302
GRIDFORMAT
  1
GRIDFORMAT_BEGIN
 90
        0
 91
        1
 62
     0
 92
       -2
340
14
 93
        0
 40
0.045
309
GRIDFORMAT_END
 95
       16
302
GRIDFORMAT
  1
GRIDFORMAT_BEGIN
 90
        0
 91
        1
 62
     0
 92
       -2
340
14
 93
        0
 40
0.045
309
GRIDFORMAT_END
 95
       32
302
GRIDFORMAT
  1
GRIDFORMAT_BEGIN
 90
        0
 91
        1
 62
     0
 92
       -2
340
14
 93
        0
 40
0.045
309
GRIDFORMAT_END
309
TABLEFORMAT_END
  1
CELLSTYLE_BEGIN
 90
        1
 91
        1
300
_TITLE
309
CELLSTYLE_END
300
CELLSTYLE
  1
TABLEFORMAT_BEGIN
 90
        5
170
     1
 91
        0
 92
        0
 62
   257
 93
        1
300
CONTENTFORMAT
  1
CONTENTFORMAT_BEGIN
 90
        0
 91
        0
 92
      512
 93
        0
300

 40
0.0
140
1.0
 94
        5
 62
     0
340
12
144
0.18
309
CONTENTFORMAT_END
171
     1
301
MARGIN
  1
CELLMARGIN_BEGIN
 40
0.06
 40
0.06
 40
0.06
 40
0.06
 40
0.06
 40
0.06
309
CELLMARGIN_END
 94
        6
 95
        1
302
GRIDFORMAT
  1
GRIDFORMAT_BEGIN
 90
        0
 91
        1
 62
     0
 92
       -2
340
14
 93
        0
 40
0.045
309
GRIDFORMAT_END
 95
        2
302
GRIDFORMAT
  1
GRIDFORMAT_BEGIN
 90
        0
 91
        1
 62
     0
 92
       -2
340
14
 93
        0
 40
0.045
309
GRIDFORMAT_END
 95
        4
302
GRIDFORMAT
  1
GRIDFORMAT_BEGIN
 90
        0
 91
        1
 62
     0
 92
       -2
340
14
 93
        0
 40
0.045
309
GRIDFORMAT_END
 95
        8
302
GRIDFORMAT
  1
GRIDFORMAT_BEGIN
 90
        0
 91
        1
 62
     0
 92
       -2
340
14
 93
        0
 40
0.045
309
GRIDFORMAT_END
 95
       16
302
GRIDFORMAT
  1
GRIDFORMAT_BEGIN
 90
        0
 91
        1
 62
     0
 92
       -2
340
14
 93
        0
 40
0.045
309
GRIDFORMAT_END
 95
       32
302
GRIDFORMAT
  1
GRIDFORMAT_BEGIN
 90
        0
 91
        1
 62
     0
 92
       -2
340
14
 93
        0
 40
0.045
309
GRIDFORMAT_END
309
TABLEFORMAT_END
  1
CELLSTYLE_BEGIN
 90
        2
 91
        1
300
_HEADER
309
CELLSTYLE_END
300
CELLSTYLE
  1
TABLEFORMAT_BEGIN
 90
        5
170
     1
 91
        0
 92
        0
 62
   257
 93
        1
300
CONTENTFORMAT
  1
CONTENTFORMAT_BEGIN
 90
        0
 91
        0
 92
      512
 93
        0
300

 40
0.0
140
1.0
 94
        2
 62
     0
340
12
144
0.18
309
CONTENTFORMAT_END
171
     1
301
MARGIN
  1
CELLMARGIN_BEGIN
 40
0.06
 40
0.06
 40
0.06
 40
0.06
 40
0.06
 40
0.06
309
CELLMARGIN_END
 94
        6
 95
        1
302
GRIDFORMAT
  1
GRIDFORMAT_BEGIN
 90
        0
 91
        1
 62
     0
 92
       -2
340
14
 93
        0
 40
0.045
309
GRIDFORMAT_END
 95
        2
302
GRIDFORMAT
  1
GRIDFORMAT_BEGIN
 90
        0
 91
        1
 62
     0
 92
       -2
340
14
 93
        0
 40
0.045
309
GRIDFORMAT_END
 95
        4
302
GRIDFORMAT
  1
GRIDFORMAT_BEGIN
 90
        0
 91
        1
 62
     0
 92
       -2
340
14
 93
        0
 40
0.045
309
GRIDFORMAT_END
 95
        8
302
GRIDFORMAT
  1
GRIDFORMAT_BEGIN
 90
        0
 91
        1
 62
     0
 92
       -2
340
14
 93
        0
 40
0.045
309
GRIDFORMAT_END
 95
       16
302
GRIDFORMAT
  1
GRIDFORMAT_BEGIN
 90
        0
 91
        1
 62
     0
 92
       -2
340
14
 93
        0
 40
0.045
309
GRIDFORMAT_END
 95
       32
302
GRIDFORMAT
  1
GRIDFORMAT_BEGIN
 90
        0
 91
        1
 62
     0
 92
       -2
340
14
 93
        0
 40
0.045
309
GRIDFORMAT_END
309
TABLEFORMAT_END
  1
CELLSTYLE_BEGIN
 90
        3
 91
        2
300
_DATA
309
CELLSTYLE_END
  0
XRECORD
  5
4D3
102
{ACAD_REACTORS
330
493
102
}
330
493
100
AcDbXrecord
280
     1
102
ACAD_ROUNDTRIP_PRE2007_TABLESTYLE
 90
      512
 91
        0
  1

 92
      512
 93
        0
  2

 94
      512
 95
        0
  3

  0
XRECORD
  5
4A6
102
{ACAD_REACTORS
330
4A5
102
}
330
4A5
100
AcDbXrecord
280
     1
102
RTVSPost2010Prop28
280
     1
102
RTVSPost2010PropOp28
 70
     1
102
RTVSPost2010Prop29
280
     1
102
RTVSPost2010PropOp29
 70
     1
102
RTVSPost2010Prop30
280
     0
102
RTVSPost2010PropOp30
 70
     1
102
RTVSPost2010Prop31
280
     0
102
RTVSPost2010PropOp31
 70
     1
102
RTVSPost2010Prop32
280
     0
102
RTVSPost2010PropOp32
 70
     1
102
RTVSPost2010Prop33
280
     0
102
RTVSPost2010PropOp33
 70
     1
102
RTVSPost2010Prop34
280
     0
102
RTVSPost2010PropOp34
 70
     1
102
RTVSPost2010Prop35
280
     0
102
RTVSPost2010PropOp35
 70
     1
102
RTVSPost2010Prop36
280
     0
102
RTVSPost2010PropOp36
 70
     1
102
RTVSPost2010Prop37
 90
       50
102
RTVSPost2010PropOp37
 70
     1
102
RTVSPost2010Prop38
140
0.0
102
RTVSPost2010PropOp38
 70
     1
102
RTVSPost2010Prop39
140
1.0
102
RTVSPost2010PropOp39
 70
     1
102
RTVSPost2010Prop40
 90
        0
102
RTVSPost2010PropOp40
 70
     1
102
RTVSPost2010Prop41ColorIndex
 90
       18
102
RTVSPost2010Prop41ColorRGB
 90
        0
102
RTVSPost2010PropOp41
 70
     1
102
RTVSPost2010Prop42
 90
       50
102
RTVSPost2010PropOp42
 70
     1
102
RTVSPost2010Prop43
 90
        3
102
RTVSPost2010PropOp43
 70
     1
102
RTVSPost2010Prop44ColorIndex
 90
        5
102
RTVSPost2010Prop44ColorRGB
 90
      255
102
RTVSPost2010PropOp44
 70
     1
102
RTVSPost2010Prop45
280
     0
102
RTVSPost2010PropOp45
 70
     1
102
RTVSPost2010Prop46
 90
       50
102
RTVSPost2010PropOp46
 70
     1
102
RTVSPost2010Prop47
 90
       50
102
RTVSPost2010PropOp47
 70
     1
102
RTVSPost2010Prop48
 90
       50
102
RTVSPost2010PropOp48
 70
     1
102
RTVSPost2010Prop49
280
     0
102
RTVSPost2010PropOp49
 70
     1
102
RTVSPost2010Prop50
 90
       50
102
RTVSPost2010PropOp50
 70
     1
102
RTVSPost2010Prop51ColorIndex
 90
      256
102
RTVSPost2010Prop51ColorRGB
 90
-16777216
102
RTVSPost2010PropOp51
 70
     0
102
RTVSPost2010Prop52
140
1.0
102
RTVSPost2010PropOp52
 70
     0
102
RTVSPost2010Prop53
 90
        2
102
RTVSPost2010PropOp53
 70
     1
102
RTVSPost2010Prop54
  1
strokes_ogs.tif
102
RTVSPost2010PropOp54
 70
     1
102
RTVSPost2010Prop55
280
     0
102
RTVSPost2010PropOp55
 70
     1
102
RTVSPost2010Prop56
140
1.0
102
RTVSPost2010PropOp56
 70
     1
102
RTVSPost2010Prop57
140
1.0
102
RTVSPost2010PropOp57
 70
     1
102
RTVSPropertyOp0
 70
     1
102
RTVSPropertyOp1
 70
     1
102
RTVSPropertyOp2
 70
     1
102
RTVSPropertyOp3
 70
     1
102
RTVSPropertyOp4
 70
     1
102
RTVSPropertyOp5
 70
     1
102
RTVSPropertyOp6
 70
     1
102
RTVSPropertyOp7
 70
     1
102
RTVSPropertyOp8
 70
     1
102
RTVSPropertyOp9
 70
     1
102
RTVSPropertyOp10
 70
     1
102
RTVSPropertyOp11
 70
     1
102
RTVSPropertyOp12
 70
     1
102
RTVSPropertyOp13
 70
     1
102
RTVSPropertyOp14
 70
     1
102
RTVSPropertyOp15
 70
     1
102
RTVSPropertyOp16
 70
     1
102
RTVSPropertyOp17
 70
     1
102
RTVSPropertyOp18
 70
     1
102
RTVSPropertyOp19
 70
     1
102
RTVSPropertyOp20
 70
     1
102
RTVSPropertyOp21
 70
     1
102
RTVSPropertyOp22
 70
     1
102
RTVSPropertyOp23
 70
     1
102
RTVSPropertyOp24
 70
     1
102
RTVSPropertyOp25
 70
     1
102
RTVSPropertyOp26
 70
     1
102
RTVSPropertyOp27
 70
     1
102
RTVSPropertyOp28
 70
     1
102
RTVSPropertyOp29
 70
     1
102
RTVSPropertyOp30
 70
     1
102
RTVSPropertyOp31
 70
     1
102
RTVSPropertyOp32
 70
     1
102
RTVSPropertyOp33
 70
     1
102
RTVSPropertyOp34
 70
     1
102
RTVSPropertyOp35
 70
     1
102
RTVSPropertyOp36
 70
     1
102
RTVSPropertyOp37
 70
     1
102
RTVSPropertyOp38
 70
     1
102
RTVSPropertyOp39
 70
     1
102
RTVSPropertyOp40
 70
     1
102
RTVSPropertyOp41
 70
     1
102
RTVSPropertyOp42
 70
     1
102
RTVSPropertyOp43
 70
     1
102
RTVSPropertyOp44
 70
     1
102
RTVSPropertyOp45
 70
     1
102
RTVSPropertyOp46
 70
     1
102
RTVSPropertyOp47
 70
     1
102
RTVSPropertyOp48
 70
     1
102
RTVSPropertyOp49
 70
     1
102
RTVSPropertyOp50
 70
     1
102
RTVSPropertyOp51
 70
     0
102
RTVSPropertyOp52
 70
     0
102
RTVSPropertyOp53
 70
     1
102
RTVSPropertyOp54
 70
     1
102
RTVSPropertyOp55
 70
     1
102
RTVSPropertyOp56
 70
     1
102
RTVSPropertyOp57
 70
     1
102
RTVSPropertyOp58
 70
     1
102
RTVSPropertyOp59
 70
     1
102
RTVSPropertyOp60
 70
     1
102
RTVSPropertyOp61
 70
     1
102
RTVSPropertyOp62
 70
     1
  0
XRECORD
  5
4AC
102
{ACAD_REACTORS
330
4AB
102
}
330
4AB
100
AcDbXrecord
280
     1
102
RTVSPost2010Prop28
280
     0
102
RTVSPost2010PropOp28
 70
     1
102
RTVSPost2010Prop29
280
     1
102
RTVSPost2010PropOp29
 70
     1
102
RTVSPost2010Prop30
280
     1
102
RTVSPost2010PropOp30
 70
     1
102
RTVSPost2010Prop31
280
     0
102
RTVSPost2010PropOp31
 70
     1
102
RTVSPost2010Prop32
280
     0
102
RTVSPost2010PropOp32
 70
     1
102
RTVSPost2010Prop33
280
     0
102
RTVSPost2010PropOp33
 70
     1
102
RTVSPost2010Prop34
280
     0
102
RTVSPost2010PropOp34
 70
     1
102
RTVSPost2010Prop35
280
     0
102
RTVSPost2010PropOp35
 70
     1
102
RTVSPost2010Prop36
280
     0
102
RTVSPost2010PropOp36
 70
     1
102
RTVSPost2010Prop37
 90
       50
102
RTVSPost2010PropOp37
 70
     1
102
RTVSPost2010Prop38
140
0.0
102
RTVSPost2010PropOp38
 70
     1
102
RTVSPost2010Prop39
140
1.0
102
RTVSPost2010PropOp39
 70
     1
102
RTVSPost2010Prop40
 90
        0
102
RTVSPost2010PropOp40
 70
     1
102
RTVSPost2010Prop41ColorIndex
 90
       18
102
RTVSPost2010Prop41ColorRGB
 90
        0
102
RTVSPost2010PropOp41
 70
     1
102
RTVSPost2010Prop42
 90
       50
102
RTVSPost2010PropOp42
 70
     1
102
RTVSPost2010Prop43
 90
        3
102
RTVSPost2010PropOp43
 70
     1
102
RTVSPost2010Prop44ColorIndex
 90
        5
102
RTVSPost2010Prop44ColorRGB
 90
      255
102
RTVSPost2010PropOp44
 70
     1
102
RTVSPost2010Prop45
280
     0
102
RTVSPost2010PropOp45
 70
     1
102
RTVSPost2010Prop46
 90
       50
102
RTVSPost2010PropOp46
 70
     1
102
RTVSPost2010Prop47
 90
       50
102
RTVSPost2010PropOp47
 70
     1
102
RTVSPost2010Prop48
 90
       50
102
RTVSPost2010PropOp48
 70
     1
102
RTVSPost2010Prop49
280
     0
102
RTVSPost2010PropOp49
 70
     1
102
RTVSPost2010Prop50
 90
       50
102
RTVSPost2010PropOp50
 70
     1
102
RTVSPost2010Prop51ColorIndex
 90
      256
102
RTVSPost2010Prop51ColorRGB
 90
-16777216
102
RTVSPost2010PropOp51
 70
     0
102
RTVSPost2010Prop52
140
1.0
102
RTVSPost2010PropOp52
 70
     0
102
RTVSPost2010Prop53
 90
        2
102
RTVSPost2010PropOp53
 70
     1
102
RTVSPost2010Prop54
  1
strokes_ogs.tif
102
RTVSPost2010PropOp54
 70
     1
102
RTVSPost2010Prop55
280
     0
102
RTVSPost2010PropOp55
 70
     1
102
RTVSPost2010Prop56
140
1.0
102
RTVSPost2010PropOp56
 70
     1
102
RTVSPost2010Prop57
140
1.0
102
RTVSPost2010PropOp57
 70
     1
102
RTVSPropertyOp0
 70
     1
102
RTVSPropertyOp1
 70
     1
102
RTVSPropertyOp2
 70
     1
102
RTVSPropertyOp3
 70
     1
102
RTVSPropertyOp4
 70
     1
102
RTVSPropertyOp5
 70
     1
102
RTVSPropertyOp6
 70
     1
102
RTVSPropertyOp7
 70
     1
102
RTVSPropertyOp8
 70
     1
102
RTVSPropertyOp9
 70
     1
102
RTVSPropertyOp10
 70
     1
102
RTVSPropertyOp11
 70
     1
102
RTVSPropertyOp12
 70
     1
102
RTVSPropertyOp13
 70
     1
102
RTVSPropertyOp14
 70
     1
102
RTVSPropertyOp15
 70
     1
102
RTVSPropertyOp16
 70
     1
102
RTVSPropertyOp17
 70
     1
102
RTVSPropertyOp18
 70
     1
102
RTVSPropertyOp19
 70
     1
102
RTVSPropertyOp20
 70
     1
102
RTVSPropertyOp21
 70
     1
102
RTVSPropertyOp22
 70
     1
102
RTVSPropertyOp23
 70
     1
102
RTVSPropertyOp24
 70
     1
102
RTVSPropertyOp25
 70
     1
102
RTVSPropertyOp26
 70
     1
102
RTVSPropertyOp27
 70
     1
102
RTVSPropertyOp28
 70
     1
102
RTVSPropertyOp29
 70
     1
102
RTVSPropertyOp30
 70
     1
102
RTVSPropertyOp31
 70
     1
102
RTVSPropertyOp32
 70
     1
102
RTVSPropertyOp33
 70
     1
102
RTVSPropertyOp34
 70
     1
102
RTVSPropertyOp35
 70
     1
102
RTVSPropertyOp36
 70
     1
102
RTVSPropertyOp37
 70
     1
102
RTVSPropertyOp38
 70
     1
102
RTVSPropertyOp39
 70
     1
102
RTVSPropertyOp40
 70
     1
102
RTVSPropertyOp41
 70
     1
102
RTVSPropertyOp42
 70
     1
102
RTVSPropertyOp43
 70
     1
102
RTVSPropertyOp44
 70
     1
102
RTVSPropertyOp45
 70
     1
102
RTVSPropertyOp46
 70
     1
102
RTVSPropertyOp47
 70
     1
102
RTVSPropertyOp48
 70
     1
102
RTVSPropertyOp49
 70
     1
102
RTVSPropertyOp50
 70
     1
102
RTVSPropertyOp51
 70
     0
102
RTVSPropertyOp52
 70
     0
102
RTVSPropertyOp53
 70
     1
102
RTVSPropertyOp54
 70
     1
102
RTVSPropertyOp55
 70
     1
102
RTVSPropertyOp56
 70
     1
102
RTVSPropertyOp57
 70
     1
102
RTVSPropertyOp58
 70
     1
102
RTVSPropertyOp59
 70
     1
102
RTVSPropertyOp60
 70
     1
102
RTVSPropertyOp61
 70
     1
102
RTVSPropertyOp62
 70
     1
  0
XRECORD
  5
4B4
102
{ACAD_REACTORS
330
4B3
102
}
330
4B3
100
AcDbXrecord
280
     1
102
RTVSPost2010Prop28
280
     0
102
RTVSPost2010PropOp28
 70
     1
102
RTVSPost2010Prop29
280
     1
102
RTVSPost2010PropOp29
 70
     1
102
RTVSPost2010Prop30
280
     1
102
RTVSPost2010PropOp30
 70
     1
102
RTVSPost2010Prop31
280
     0
102
RTVSPost2010PropOp31
 70
     1
102
RTVSPost2010Prop32
280
     0
102
RTVSPost2010PropOp32
 70
     1
102
RTVSPost2010Prop33
280
     0
102
RTVSPost2010PropOp33
 70
     1
102
RTVSPost2010Prop34
280
     0
102
RTVSPost2010PropOp34
 70
     1
102
RTVSPost2010Prop35
280
     0
102
RTVSPost2010PropOp35
 70
     1
102
RTVSPost2010Prop36
280
     0
102
RTVSPost2010PropOp36
 70
     1
102
RTVSPost2010Prop37
 90
       50
102
RTVSPost2010PropOp37
 70
     1
102
RTVSPost2010Prop38
140
0.0
102
RTVSPost2010PropOp38
 70
     1
102
RTVSPost2010Prop39
140
1.0
102
RTVSPost2010PropOp39
 70
     1
102
RTVSPost2010Prop40
 90
        0
102
RTVSPost2010PropOp40
 70
     1
102
RTVSPost2010Prop41ColorIndex
 90
       18
102
RTVSPost2010Prop41ColorRGB
 90
        0
102
RTVSPost2010PropOp41
 70
     1
102
RTVSPost2010Prop42
 90
       50
102
RTVSPost2010PropOp42
 70
     1
102
RTVSPost2010Prop43
 90
        3
102
RTVSPost2010PropOp43
 70
     1
102
RTVSPost2010Prop44ColorIndex
 90
        5
102
RTVSPost2010Prop44ColorRGB
 90
      255
102
RTVSPost2010PropOp44
 70
     1
102
RTVSPost2010Prop45
280
     0
102
RTVSPost2010PropOp45
 70
     1
102
RTVSPost2010Prop46
 90
       50
102
RTVSPost2010PropOp46
 70
     1
102
RTVSPost2010Prop47
 90
       50
102
RTVSPost2010PropOp47
 70
     1
102
RTVSPost2010Prop48
 90
       50
102
RTVSPost2010PropOp48
 70
     1
102
RTVSPost2010Prop49
280
     0
102
RTVSPost2010PropOp49
 70
     1
102
RTVSPost2010Prop50
 90
       50
102
RTVSPost2010PropOp50
 70
     1
102
RTVSPost2010Prop51ColorIndex
 90
      256
102
RTVSPost2010Prop51ColorRGB
 90
-16777216
102
RTVSPost2010PropOp51
 70
     0
102
RTVSPost2010Prop52
140
1.0
102
RTVSPost2010PropOp52
 70
     0
102
RTVSPost2010Prop53
 90
        2
102
RTVSPost2010PropOp53
 70
     1
102
RTVSPost2010Prop54
  1
strokes_ogs.tif
102
RTVSPost2010PropOp54
 70
     1
102
RTVSPost2010Prop55
280
     0
102
RTVSPost2010PropOp55
 70
     1
102
RTVSPost2010Prop56
140
1.0
102
RTVSPost2010PropOp56
 70
     1
102
RTVSPost2010Prop57
140
1.0
102
RTVSPost2010PropOp57
 70
     1
102
RTVSPropertyOp0
 70
     1
102
RTVSPropertyOp1
 70
     1
102
RTVSPropertyOp2
 70
     1
102
RTVSPropertyOp3
 70
     1
102
RTVSPropertyOp4
 70
     1
102
RTVSPropertyOp5
 70
     1
102
RTVSPropertyOp6
 70
     1
102
RTVSPropertyOp7
 70
     1
102
RTVSPropertyOp8
 70
     1
102
RTVSPropertyOp9
 70
     1
102
RTVSPropertyOp10
 70
     1
102
RTVSPropertyOp11
 70
     1
102
RTVSPropertyOp12
 70
     1
102
RTVSPropertyOp13
 70
     1
102
RTVSPropertyOp14
 70
     1
102
RTVSPropertyOp15
 70
     1
102
RTVSPropertyOp16
 70
     1
102
RTVSPropertyOp17
 70
     1
102
RTVSPropertyOp18
 70
     1
102
RTVSPropertyOp19
 70
     1
102
RTVSPropertyOp20
 70
     1
102
RTVSPropertyOp21
 70
     1
102
RTVSPropertyOp22
 70
     1
102
RTVSPropertyOp23
 70
     1
102
RTVSPropertyOp24
 70
     1
102
RTVSPropertyOp25
 70
     1
102
RTVSPropertyOp26
 70
     1
102
RTVSPropertyOp27
 70
     1
102
RTVSPropertyOp28
 70
     1
102
RTVSPropertyOp29
 70
     1
102
RTVSPropertyOp30
 70
     1
102
RTVSPropertyOp31
 70
     1
102
RTVSPropertyOp32
 70
     1
102
RTVSPropertyOp33
 70
     1
102
RTVSPropertyOp34
 70
     1
102
RTVSPropertyOp35
 70
     1
102
RTVSPropertyOp36
 70
     1
102
RTVSPropertyOp37
 70
     1
102
RTVSPropertyOp38
 70
     1
102
RTVSPropertyOp39
 70
     1
102
RTVSPropertyOp40
 70
     1
102
RTVSPropertyOp41
 70
     1
102
RTVSPropertyOp42
 70
     1
102
RTVSPropertyOp43
 70
     1
102
RTVSPropertyOp44
 70
     1
102
RTVSPropertyOp45
 70
     1
102
RTVSPropertyOp46
 70
     1
102
RTVSPropertyOp47
 70
     1
102
RTVSPropertyOp48
 70
     1
102
RTVSPropertyOp49
 70
     1
102
RTVSPropertyOp50
 70
     1
102
RTVSPropertyOp51
 70
     0
102
RTVSPropertyOp52
 70
     0
102
RTVSPropertyOp53
 70
     1
102
RTVSPropertyOp54
 70
     1
102
RTVSPropertyOp55
 70
     1
102
RTVSPropertyOp56
 70
     1
102
RTVSPropertyOp57
 70
     1
102
RTVSPropertyOp58
 70
     1
102
RTVSPropertyOp59
 70
     1
102
RTVSPropertyOp60
 70
     1
102
RTVSPropertyOp61
 70
     1
102
RTVSPropertyOp62
 70
     1
  0
XRECORD
  5
4BC
102
{ACAD_REACTORS
330
4BB
102
}
330
4BB
100
AcDbXrecord
280
     1
102
RTVSPost2010Prop28
280
     0
102
RTVSPost2010PropOp28
 70
     1
102
RTVSPost2010Prop29
280
     1
102
RTVSPost2010PropOp29
 70
     1
102
RTVSPost2010Prop30
280
     1
102
RTVSPost2010PropOp30
 70
     1
102
RTVSPost2010Prop31
280
     0
102
RTVSPost2010PropOp31
 70
     1
102
RTVSPost2010Prop32
280
     0
102
RTVSPost2010PropOp32
 70
     1
102
RTVSPost2010Prop33
280
     0
102
RTVSPost2010PropOp33
 70
     1
102
RTVSPost2010Prop34
280
     0
102
RTVSPost2010PropOp34
 70
     1
102
RTVSPost2010Prop35
280
     0
102
RTVSPost2010PropOp35
 70
     1
102
RTVSPost2010Prop36
280
     0
102
RTVSPost2010PropOp36
 70
     1
102
RTVSPost2010Prop37
 90
       50
102
RTVSPost2010PropOp37
 70
     1
102
RTVSPost2010Prop38
140
0.0
102
RTVSPost2010PropOp38
 70
     1
102
RTVSPost2010Prop39
140
1.0
102
RTVSPost2010PropOp39
 70
     1
102
RTVSPost2010Prop40
 90
        0
102
RTVSPost2010PropOp40
 70
     1
102
RTVSPost2010Prop41ColorIndex
 90
       18
102
RTVSPost2010Prop41ColorRGB
 90
        0
102
RTVSPost2010PropOp41
 70
     1
102
RTVSPost2010Prop42
 90
       50
102
RTVSPost2010PropOp42
 70
     1
102
RTVSPost2010Prop43
 90
        3
102
RTVSPost2010PropOp43
 70
     1
102
RTVSPost2010Prop44ColorIndex
 90
        5
102
RTVSPost2010Prop44ColorRGB
 90
      255
102
RTVSPost2010PropOp44
 70
     1
102
RTVSPost2010Prop45
280
     0
102
RTVSPost2010PropOp45
 70
     1
102
RTVSPost2010Prop46
 90
       50
102
RTVSPost2010PropOp46
 70
     1
102
RTVSPost2010Prop47
 90
       50
102
RTVSPost2010PropOp47
 70
     1
102
RTVSPost2010Prop48
 90
       50
102
RTVSPost2010PropOp48
 70
     1
102
RTVSPost2010Prop49
280
     0
102
RTVSPost2010PropOp49
 70
     1
102
RTVSPost2010Prop50
 90
       50
102
RTVSPost2010PropOp50
 70
     1
102
RTVSPost2010Prop51ColorIndex
 90
      256
102
RTVSPost2010Prop51ColorRGB
 90
-16777216
102
RTVSPost2010PropOp51
 70
     0
102
RTVSPost2010Prop52
140
1.0
102
RTVSPost2010PropOp52
 70
     0
102
RTVSPost2010Prop53
 90
        2
102
RTVSPost2010PropOp53
 70
     1
102
RTVSPost2010Prop54
  1
strokes_ogs.tif
102
RTVSPost2010PropOp54
 70
     1
102
RTVSPost2010Prop55
280
     0
102
RTVSPost2010PropOp55
 70
     1
102
RTVSPost2010Prop56
140
1.0
102
RTVSPost2010PropOp56
 70
     1
102
RTVSPost2010Prop57
140
1.0
102
RTVSPost2010PropOp57
 70
     1
102
RTVSPropertyOp0
 70
     1
102
RTVSPropertyOp1
 70
     1
102
RTVSPropertyOp2
 70
     1
102
RTVSPropertyOp3
 70
     1
102
RTVSPropertyOp4
 70
     1
102
RTVSPropertyOp5
 70
     1
102
RTVSPropertyOp6
 70
     1
102
RTVSPropertyOp7
 70
     1
102
RTVSPropertyOp8
 70
     1
102
RTVSPropertyOp9
 70
     1
102
RTVSPropertyOp10
 70
     1
102
RTVSPropertyOp11
 70
     1
102
RTVSPropertyOp12
 70
     1
102
RTVSPropertyOp13
 70
     1
102
RTVSPropertyOp14
 70
     1
102
RTVSPropertyOp15
 70
     1
102
RTVSPropertyOp16
 70
     1
102
RTVSPropertyOp17
 70
     1
102
RTVSPropertyOp18
 70
     1
102
RTVSPropertyOp19
 70
     1
102
RTVSPropertyOp20
 70
     1
102
RTVSPropertyOp21
 70
     1
102
RTVSPropertyOp22
 70
     1
102
RTVSPropertyOp23
 70
     1
102
RTVSPropertyOp24
 70
     1
102
RTVSPropertyOp25
 70
     1
102
RTVSPropertyOp26
 70
     1
102
RTVSPropertyOp27
 70
     1
102
RTVSPropertyOp28
 70
     1
102
RTVSPropertyOp29
 70
     1
102
RTVSPropertyOp30
 70
     1
102
RTVSPropertyOp31
 70
     1
102
RTVSPropertyOp32
 70
     1
102
RTVSPropertyOp33
 70
     1
102
RTVSPropertyOp34
 70
     1
102
RTVSPropertyOp35
 70
     1
102
RTVSPropertyOp36
 70
     1
102
RTVSPropertyOp37
 70
     1
102
RTVSPropertyOp38
 70
     1
102
RTVSPropertyOp39
 70
     1
102
RTVSPropertyOp40
 70
     1
102
RTVSPropertyOp41
 70
     1
102
RTVSPropertyOp42
 70
     1
102
RTVSPropertyOp43
 70
     1
102
RTVSPropertyOp44
 70
     1
102
RTVSPropertyOp45
 70
     1
102
RTVSPropertyOp46
 70
     1
102
RTVSPropertyOp47
 70
     1
102
RTVSPropertyOp48
 70
     1
102
RTVSPropertyOp49
 70
     1
102
RTVSPropertyOp50
 70
     1
102
RTVSPropertyOp51
 70
     0
102
RTVSPropertyOp52
 70
     0
102
RTVSPropertyOp53
 70
     1
102
RTVSPropertyOp54
 70
     1
102
RTVSPropertyOp55
 70
     1
102
RTVSPropertyOp56
 70
     1
102
RTVSPropertyOp57
 70
     1
102
RTVSPropertyOp58
 70
     1
102
RTVSPropertyOp59
 70
     1
102
RTVSPropertyOp60
 70
     1
102
RTVSPropertyOp61
 70
     1
102
RTVSPropertyOp62
 70
     1
  0
XRECORD
  5
4B0
102
{ACAD_REACTORS
330
4AF
102
}
330
4AF
100
AcDbXrecord
280
     1
102
RTVSPost2010Prop28
280
     0
102
RTVSPost2010PropOp28
 70
     1
102
RTVSPost2010Prop29
280
     1
102
RTVSPost2010PropOp29
 70
     1
102
RTVSPost2010Prop30
280
     1
102
RTVSPost2010PropOp30
 70
     1
102
RTVSPost2010Prop31
280
     0
102
RTVSPost2010PropOp31
 70
     1
102
RTVSPost2010Prop32
280
     0
102
RTVSPost2010PropOp32
 70
     1
102
RTVSPost2010Prop33
280
     0
102
RTVSPost2010PropOp33
 70
     1
102
RTVSPost2010Prop34
280
     0
102
RTVSPost2010PropOp34
 70
     1
102
RTVSPost2010Prop35
280
     0
102
RTVSPost2010PropOp35
 70
     1
102
RTVSPost2010Prop36
280
     0
102
RTVSPost2010PropOp36
 70
     1
102
RTVSPost2010Prop37
 90
       50
102
RTVSPost2010PropOp37
 70
     1
102
RTVSPost2010Prop38
140
0.0
102
RTVSPost2010PropOp38
 70
     1
102
RTVSPost2010Prop39
140
1.0
102
RTVSPost2010PropOp39
 70
     1
102
RTVSPost2010Prop40
 90
        0
102
RTVSPost2010PropOp40
 70
     1
102
RTVSPost2010Prop41ColorIndex
 90
       18
102
RTVSPost2010Prop41ColorRGB
 90
        0
102
RTVSPost2010PropOp41
 70
     1
102
RTVSPost2010Prop42
 90
       50
102
RTVSPost2010PropOp42
 70
     1
102
RTVSPost2010Prop43
 90
        3
102
RTVSPost2010PropOp43
 70
     1
102
RTVSPost2010Prop44ColorIndex
 90
        5
102
RTVSPost2010Prop44ColorRGB
 90
      255
102
RTVSPost2010PropOp44
 70
     1
102
RTVSPost2010Prop45
280
     0
102
RTVSPost2010PropOp45
 70
     1
102
RTVSPost2010Prop46
 90
       50
102
RTVSPost2010PropOp46
 70
     1
102
RTVSPost2010Prop47
 90
       50
102
RTVSPost2010PropOp47
 70
     1
102
RTVSPost2010Prop48
 90
       50
102
RTVSPost2010PropOp48
 70
     1
102
RTVSPost2010Prop49
280
     0
102
RTVSPost2010PropOp49
 70
     1
102
RTVSPost2010Prop50
 90
       50
102
RTVSPost2010PropOp50
 70
     1
102
RTVSPost2010Prop51ColorIndex
 90
      256
102
RTVSPost2010Prop51ColorRGB
 90
-16777216
102
RTVSPost2010PropOp51
 70
     0
102
RTVSPost2010Prop52
140
1.0
102
RTVSPost2010PropOp52
 70
     0
102
RTVSPost2010Prop53
 90
        2
102
RTVSPost2010PropOp53
 70
     1
102
RTVSPost2010Prop54
  1
strokes_ogs.tif
102
RTVSPost2010PropOp54
 70
     1
102
RTVSPost2010Prop55
280
     0
102
RTVSPost2010PropOp55
 70
     1
102
RTVSPost2010Prop56
140
1.0
102
RTVSPost2010PropOp56
 70
     1
102
RTVSPost2010Prop57
140
1.0
102
RTVSPost2010PropOp57
 70
     1
102
RTVSPropertyOp0
 70
     1
102
RTVSPropertyOp1
 70
     1
102
RTVSPropertyOp2
 70
     1
102
RTVSPropertyOp3
 70
     1
102
RTVSPropertyOp4
 70
     1
102
RTVSPropertyOp5
 70
     1
102
RTVSPropertyOp6
 70
     1
102
RTVSPropertyOp7
 70
     1
102
RTVSPropertyOp8
 70
     1
102
RTVSPropertyOp9
 70
     1
102
RTVSPropertyOp10
 70
     1
102
RTVSPropertyOp11
 70
     1
102
RTVSPropertyOp12
 70
     1
102
RTVSPropertyOp13
 70
     1
102
RTVSPropertyOp14
 70
     1
102
RTVSPropertyOp15
 70
     1
102
RTVSPropertyOp16
 70
     1
102
RTVSPropertyOp17
 70
     1
102
RTVSPropertyOp18
 70
     1
102
RTVSPropertyOp19
 70
     1
102
RTVSPropertyOp20
 70
     1
102
RTVSPropertyOp21
 70
     1
102
RTVSPropertyOp22
 70
     1
102
RTVSPropertyOp23
 70
     1
102
RTVSPropertyOp24
 70
     1
102
RTVSPropertyOp25
 70
     1
102
RTVSPropertyOp26
 70
     1
102
RTVSPropertyOp27
 70
     1
102
RTVSPropertyOp28
 70
     1
102
RTVSPropertyOp29
 70
     1
102
RTVSPropertyOp30
 70
     1
102
RTVSPropertyOp31
 70
     1
102
RTVSPropertyOp32
 70
     1
102
RTVSPropertyOp33
 70
     1
102
RTVSPropertyOp34
 70
     1
102
RTVSPropertyOp35
 70
     1
102
RTVSPropertyOp36
 70
     1
102
RTVSPropertyOp37
 70
     1
102
RTVSPropertyOp38
 70
     1
102
RTVSPropertyOp39
 70
     1
102
RTVSPropertyOp40
 70
     1
102
RTVSPropertyOp41
 70
     1
102
RTVSPropertyOp42
 70
     1
102
RTVSPropertyOp43
 70
     1
102
RTVSPropertyOp44
 70
     1
102
RTVSPropertyOp45
 70
     1
102
RTVSPropertyOp46
 70
     1
102
RTVSPropertyOp47
 70
     1
102
RTVSPropertyOp48
 70
     1
102
RTVSPropertyOp49
 70
     1
102
RTVSPropertyOp50
 70
     1
102
RTVSPropertyOp51
 70
     0
102
RTVSPropertyOp52
 70
     0
102
RTVSPropertyOp53
 70
     1
102
RTVSPropertyOp54
 70
     1
102
RTVSPropertyOp55
 70
     1
102
RTVSPropertyOp56
 70
     1
102
RTVSPropertyOp57
 70
     1
102
RTVSPropertyOp58
 70
     1
102
RTVSPropertyOp59
 70
     1
102
RTVSPropertyOp60
 70
     1
102
RTVSPropertyOp61
 70
     1
102
RTVSPropertyOp62
 70
     1
  0
XRECORD
  5
4B2
102
{ACAD_REACTORS
330
4B1
102
}
330
4B1
100
AcDbXrecord
280
     1
102
RTVSPost2010Prop28
280
     0
102
RTVSPost2010PropOp28
 70
     1
102
RTVSPost2010Prop29
280
     1
102
RTVSPost2010PropOp29
 70
     1
102
RTVSPost2010Prop30
280
     1
102
RTVSPost2010PropOp30
 70
     1
102
RTVSPost2010Prop31
280
     0
102
RTVSPost2010PropOp31
 70
     1
102
RTVSPost2010Prop32
280
     0
102
RTVSPost2010PropOp32
 70
     1
102
RTVSPost2010Prop33
280
     0
102
RTVSPost2010PropOp33
 70
     1
102
RTVSPost2010Prop34
280
     0
102
RTVSPost2010PropOp34
 70
     1
102
RTVSPost2010Prop35
280
     0
102
RTVSPost2010PropOp35
 70
     1
102
RTVSPost2010Prop36
280
     0
102
RTVSPost2010PropOp36
 70
     1
102
RTVSPost2010Prop37
 90
       50
102
RTVSPost2010PropOp37
 70
     1
102
RTVSPost2010Prop38
140
0.0
102
RTVSPost2010PropOp38
 70
     1
102
RTVSPost2010Prop39
140
1.0
102
RTVSPost2010PropOp39
 70
     1
102
RTVSPost2010Prop40
 90
        0
102
RTVSPost2010PropOp40
 70
     1
102
RTVSPost2010Prop41ColorIndex
 90
       18
102
RTVSPost2010Prop41ColorRGB
 90
        0
102
RTVSPost2010PropOp41
 70
     1
102
RTVSPost2010Prop42
 90
       50
102
RTVSPost2010PropOp42
 70
     1
102
RTVSPost2010Prop43
 90
        3
102
RTVSPost2010PropOp43
 70
     1
102
RTVSPost2010Prop44ColorIndex
 90
        5
102
RTVSPost2010Prop44ColorRGB
 90
      255
102
RTVSPost2010PropOp44
 70
     1
102
RTVSPost2010Prop45
280
     0
102
RTVSPost2010PropOp45
 70
     1
102
RTVSPost2010Prop46
 90
       50
102
RTVSPost2010PropOp46
 70
     1
102
RTVSPost2010Prop47
 90
       50
102
RTVSPost2010PropOp47
 70
     1
102
RTVSPost2010Prop48
 90
       50
102
RTVSPost2010PropOp48
 70
     1
102
RTVSPost2010Prop49
280
     0
102
RTVSPost2010PropOp49
 70
     1
102
RTVSPost2010Prop50
 90
       50
102
RTVSPost2010PropOp50
 70
     1
102
RTVSPost2010Prop51ColorIndex
 90
      256
102
RTVSPost2010Prop51ColorRGB
 90
-16777216
102
RTVSPost2010PropOp51
 70
     0
102
RTVSPost2010Prop52
140
1.0
102
RTVSPost2010PropOp52
 70
     0
102
RTVSPost2010Prop53
 90
        2
102
RTVSPost2010PropOp53
 70
     1
102
RTVSPost2010Prop54
  1
strokes_ogs.tif
102
RTVSPost2010PropOp54
 70
     1
102
RTVSPost2010Prop55
280
     0
102
RTVSPost2010PropOp55
 70
     1
102
RTVSPost2010Prop56
140
1.0
102
RTVSPost2010PropOp56
 70
     1
102
RTVSPost2010Prop57
140
1.0
102
RTVSPost2010PropOp57
 70
     1
102
RTVSPropertyOp0
 70
     1
102
RTVSPropertyOp1
 70
     1
102
RTVSPropertyOp2
 70
     1
102
RTVSPropertyOp3
 70
     1
102
RTVSPropertyOp4
 70
     1
102
RTVSPropertyOp5
 70
     1
102
RTVSPropertyOp6
 70
     1
102
RTVSPropertyOp7
 70
     1
102
RTVSPropertyOp8
 70
     1
102
RTVSPropertyOp9
 70
     1
102
RTVSPropertyOp10
 70
     1
102
RTVSPropertyOp11
 70
     1
102
RTVSPropertyOp12
 70
     1
102
RTVSPropertyOp13
 70
     1
102
RTVSPropertyOp14
 70
     1
102
RTVSPropertyOp15
 70
     1
102
RTVSPropertyOp16
 70
     1
102
RTVSPropertyOp17
 70
     1
102
RTVSPropertyOp18
 70
     1
102
RTVSPropertyOp19
 70
     1
102
RTVSPropertyOp20
 70
     1
102
RTVSPropertyOp21
 70
     1
102
RTVSPropertyOp22
 70
     1
102
RTVSPropertyOp23
 70
     1
102
RTVSPropertyOp24
 70
     1
102
RTVSPropertyOp25
 70
     1
102
RTVSPropertyOp26
 70
     1
102
RTVSPropertyOp27
 70
     1
102
RTVSPropertyOp28
 70
     1
102
RTVSPropertyOp29
 70
     1
102
RTVSPropertyOp30
 70
     1
102
RTVSPropertyOp31
 70
     1
102
RTVSPropertyOp32
 70
     1
102
RTVSPropertyOp33
 70
     1
102
RTVSPropertyOp34
 70
     1
102
RTVSPropertyOp35
 70
     1
102
RTVSPropertyOp36
 70
     1
102
RTVSPropertyOp37
 70
     1
102
RTVSPropertyOp38
 70
     1
102
RTVSPropertyOp39
 70
     1
102
RTVSPropertyOp40
 70
     1
102
RTVSPropertyOp41
 70
     1
102
RTVSPropertyOp42
 70
     1
102
RTVSPropertyOp43
 70
     1
102
RTVSPropertyOp44
 70
     1
102
RTVSPropertyOp45
 70
     1
102
RTVSPropertyOp46
 70
     1
102
RTVSPropertyOp47
 70
     1
102
RTVSPropertyOp48
 70
     1
102
RTVSPropertyOp49
 70
     1
102
RTVSPropertyOp50
 70
     1
102
RTVSPropertyOp51
 70
     0
102
RTVSPropertyOp52
 70
     0
102
RTVSPropertyOp53
 70
     1
102
RTVSPropertyOp54
 70
     1
102
RTVSPropertyOp55
 70
     1
102
RTVSPropertyOp56
 70
     1
102
RTVSPropertyOp57
 70
     1
102
RTVSPropertyOp58
 70
     1
102
RTVSPropertyOp59
 70
     1
102
RTVSPropertyOp60
 70
     1
102
RTVSPropertyOp61
 70
     1
102
RTVSPropertyOp62
 70
     1
  0
XRECORD
  5
4C2
102
{ACAD_REACTORS
330
4C1
102
}
330
4C1
100
AcDbXrecord
280
     1
102
RTVSPost2010Prop28
280
     0
102
RTVSPost2010PropOp28
 70
     1
102
RTVSPost2010Prop29
280
     1
102
RTVSPost2010PropOp29
 70
     1
102
RTVSPost2010Prop30
280
     1
102
RTVSPost2010PropOp30
 70
     1
102
RTVSPost2010Prop31
280
     0
102
RTVSPost2010PropOp31
 70
     1
102
RTVSPost2010Prop32
280
     0
102
RTVSPost2010PropOp32
 70
     1
102
RTVSPost2010Prop33
280
     0
102
RTVSPost2010PropOp33
 70
     1
102
RTVSPost2010Prop34
280
     0
102
RTVSPost2010PropOp34
 70
     1
102
RTVSPost2010Prop35
280
     0
102
RTVSPost2010PropOp35
 70
     1
102
RTVSPost2010Prop36
280
     0
102
RTVSPost2010PropOp36
 70
     1
102
RTVSPost2010Prop37
 90
       50
102
RTVSPost2010PropOp37
 70
     1
102
RTVSPost2010Prop38
140
0.0
102
RTVSPost2010PropOp38
 70
     1
102
RTVSPost2010Prop39
140
1.0
102
RTVSPost2010PropOp39
 70
     1
102
RTVSPost2010Prop40
 90
        0
102
RTVSPost2010PropOp40
 70
     1
102
RTVSPost2010Prop41ColorIndex
 90
       18
102
RTVSPost2010Prop41ColorRGB
 90
        0
102
RTVSPost2010PropOp41
 70
     1
102
RTVSPost2010Prop42
 90
       50
102
RTVSPost2010PropOp42
 70
     1
102
RTVSPost2010Prop43
 90
        3
102
RTVSPost2010PropOp43
 70
     1
102
RTVSPost2010Prop44ColorIndex
 90
        5
102
RTVSPost2010Prop44ColorRGB
 90
      255
102
RTVSPost2010PropOp44
 70
     1
102
RTVSPost2010Prop45
280
     0
102
RTVSPost2010PropOp45
 70
     1
102
RTVSPost2010Prop46
 90
       50
102
RTVSPost2010PropOp46
 70
     1
102
RTVSPost2010Prop47
 90
       50
102
RTVSPost2010PropOp47
 70
     1
102
RTVSPost2010Prop48
 90
       50
102
RTVSPost2010PropOp48
 70
     1
102
RTVSPost2010Prop49
280
     0
102
RTVSPost2010PropOp49
 70
     1
102
RTVSPost2010Prop50
 90
       50
102
RTVSPost2010PropOp50
 70
     1
102
RTVSPost2010Prop51ColorIndex
 90
      256
102
RTVSPost2010Prop51ColorRGB
 90
-16777216
102
RTVSPost2010PropOp51
 70
     0
102
RTVSPost2010Prop52
140
1.0
102
RTVSPost2010PropOp52
 70
     0
102
RTVSPost2010Prop53
 90
        2
102
RTVSPost2010PropOp53
 70
     1
102
RTVSPost2010Prop54
  1
strokes_ogs.tif
102
RTVSPost2010PropOp54
 70
     1
102
RTVSPost2010Prop55
280
     0
102
RTVSPost2010PropOp55
 70
     1
102
RTVSPost2010Prop56
140
1.0
102
RTVSPost2010PropOp56
 70
     1
102
RTVSPost2010Prop57
140
1.0
102
RTVSPost2010PropOp57
 70
     1
102
RTVSPropertyOp0
 70
     0
102
RTVSPropertyOp1
 70
     0
102
RTVSPropertyOp2
 70
     0
102
RTVSPropertyOp3
 70
     0
102
RTVSPropertyOp4
 70
     0
102
RTVSPropertyOp5
 70
     0
102
RTVSPropertyOp6
 70
     0
102
RTVSPropertyOp7
 70
     0
102
RTVSPropertyOp8
 70
     0
102
RTVSPropertyOp9
 70
     0
102
RTVSPropertyOp10
 70
     0
102
RTVSPropertyOp11
 70
     0
102
RTVSPropertyOp12
 70
     0
102
RTVSPropertyOp13
 70
     0
102
RTVSPropertyOp14
 70
     0
102
RTVSPropertyOp15
 70
     0
102
RTVSPropertyOp16
 70
     0
102
RTVSPropertyOp17
 70
     0
102
RTVSPropertyOp18
 70
     0
102
RTVSPropertyOp19
 70
     0
102
RTVSPropertyOp20
 70
     0
102
RTVSPropertyOp21
 70
     0
102
RTVSPropertyOp22
 70
     0
102
RTVSPropertyOp23
 70
     0
102
RTVSPropertyOp24
 70
     0
102
RTVSPropertyOp25
 70
     0
102
RTVSPropertyOp26
 70
     0
102
RTVSPropertyOp27
 70
     0
102
RTVSPropertyOp28
 70
     1
102
RTVSPropertyOp29
 70
     1
102
RTVSPropertyOp30
 70
     1
102
RTVSPropertyOp31
 70
     1
102
RTVSPropertyOp32
 70
     1
102
RTVSPropertyOp33
 70
     1
102
RTVSPropertyOp34
 70
     1
102
RTVSPropertyOp35
 70
     1
102
RTVSPropertyOp36
 70
     1
102
RTVSPropertyOp37
 70
     1
102
RTVSPropertyOp38
 70
     1
102
RTVSPropertyOp39
 70
     1
102
RTVSPropertyOp40
 70
     1
102
RTVSPropertyOp41
 70
     1
102
RTVSPropertyOp42
 70
     1
102
RTVSPropertyOp43
 70
     1
102
RTVSPropertyOp44
 70
     1
102
RTVSPropertyOp45
 70
     1
102
RTVSPropertyOp46
 70
     1
102
RTVSPropertyOp47
 70
     1
102
RTVSPropertyOp48
 70
     1
102
RTVSPropertyOp49
 70
     1
102
RTVSPropertyOp50
 70
     1
102
RTVSPropertyOp51
 70
     0
102
RTVSPropertyOp52
 70
     0
102
RTVSPropertyOp53
 70
     1
102
RTVSPropertyOp54
 70
     1
102
RTVSPropertyOp55
 70
     1
102
RTVSPropertyOp56
 70
     1
102
RTVSPropertyOp57
 70
     1
102
RTVSPropertyOp58
 70
     1
102
RTVSPropertyOp59
 70
     1
102
RTVSPropertyOp60
 70
     1
102
RTVSPropertyOp61
 70
     1
102
RTVSPropertyOp62
 70
     1
  0
XRECORD
  5
4BA
102
{ACAD_REACTORS
330
4B9
102
}
330
4B9
100
AcDbXrecord
280
     1
102
RTVSPost2010Prop28
280
     0
102
RTVSPost2010PropOp28
 70
     1
102
RTVSPost2010Prop29
280
     1
102
RTVSPost2010PropOp29
 70
     1
102
RTVSPost2010Prop30
280
     1
102
RTVSPost2010PropOp30
 70
     1
102
RTVSPost2010Prop31
280
     0
102
RTVSPost2010PropOp31
 70
     1
102
RTVSPost2010Prop32
280
     0
102
RTVSPost2010PropOp32
 70
     1
102
RTVSPost2010Prop33
280
     0
102
RTVSPost2010PropOp33
 70
     1
102
RTVSPost2010Prop34
280
     0
102
RTVSPost2010PropOp34
 70
     1
102
RTVSPost2010Prop35
280
     0
102
RTVSPost2010PropOp35
 70
     1
102
RTVSPost2010Prop36
280
     0
102
RTVSPost2010PropOp36
 70
     1
102
RTVSPost2010Prop37
 90
       50
102
RTVSPost2010PropOp37
 70
     1
102
RTVSPost2010Prop38
140
0.0
102
RTVSPost2010PropOp38
 70
     1
102
RTVSPost2010Prop39
140
1.0
102
RTVSPost2010PropOp39
 70
     1
102
RTVSPost2010Prop40
 90
        0
102
RTVSPost2010PropOp40
 70
     1
102
RTVSPost2010Prop41ColorIndex
 90
       18
102
RTVSPost2010Prop41ColorRGB
 90
        0
102
RTVSPost2010PropOp41
 70
     1
102
RTVSPost2010Prop42
 90
       50
102
RTVSPost2010PropOp42
 70
     1
102
RTVSPost2010Prop43
 90
        3
102
RTVSPost2010PropOp43
 70
     1
102
RTVSPost2010Prop44ColorIndex
 90
        5
102
RTVSPost2010Prop44ColorRGB
 90
      255
102
RTVSPost2010PropOp44
 70
     1
102
RTVSPost2010Prop45
280
     0
102
RTVSPost2010PropOp45
 70
     1
102
RTVSPost2010Prop46
 90
       50
102
RTVSPost2010PropOp46
 70
     1
102
RTVSPost2010Prop47
 90
       50
102
RTVSPost2010PropOp47
 70
     1
102
RTVSPost2010Prop48
 90
       50
102
RTVSPost2010PropOp48
 70
     1
102
RTVSPost2010Prop49
280
     0
102
RTVSPost2010PropOp49
 70
     1
102
RTVSPost2010Prop50
 90
       50
102
RTVSPost2010PropOp50
 70
     1
102
RTVSPost2010Prop51ColorIndex
 90
      256
102
RTVSPost2010Prop51ColorRGB
 90
-16777216
102
RTVSPost2010PropOp51
 70
     0
102
RTVSPost2010Prop52
140
1.0
102
RTVSPost2010PropOp52
 70
     0
102
RTVSPost2010Prop53
 90
        2
102
RTVSPost2010PropOp53
 70
     1
102
RTVSPost2010Prop54
  1
strokes_ogs.tif
102
RTVSPost2010PropOp54
 70
     1
102
RTVSPost2010Prop55
280
     0
102
RTVSPost2010PropOp55
 70
     1
102
RTVSPost2010Prop56
140
1.0
102
RTVSPost2010PropOp56
 70
     1
102
RTVSPost2010Prop57
140
1.0
102
RTVSPost2010PropOp57
 70
     1
102
RTVSPropertyOp0
 70
     1
102
RTVSPropertyOp1
 70
     1
102
RTVSPropertyOp2
 70
     1
102
RTVSPropertyOp3
 70
     1
102
RTVSPropertyOp4
 70
     1
102
RTVSPropertyOp5
 70
     1
102
RTVSPropertyOp6
 70
     1
102
RTVSPropertyOp7
 70
     1
102
RTVSPropertyOp8
 70
     1
102
RTVSPropertyOp9
 70
     1
102
RTVSPropertyOp10
 70
     1
102
RTVSPropertyOp11
 70
     1
102
RTVSPropertyOp12
 70
     1
102
RTVSPropertyOp13
 70
     1
102
RTVSPropertyOp14
 70
     1
102
RTVSPropertyOp15
 70
     1
102
RTVSPropertyOp16
 70
     1
102
RTVSPropertyOp17
 70
     1
102
RTVSPropertyOp18
 70
     1
102
RTVSPropertyOp19
 70
     1
102
RTVSPropertyOp20
 70
     1
102
RTVSPropertyOp21
 70
     1
102
RTVSPropertyOp22
 70
     1
102
RTVSPropertyOp23
 70
     1
102
RTVSPropertyOp24
 70
     1
102
RTVSPropertyOp25
 70
     1
102
RTVSPropertyOp26
 70
     1
102
RTVSPropertyOp27
 70
     1
102
RTVSPropertyOp28
 70
     1
102
RTVSPropertyOp29
 70
     1
102
RTVSPropertyOp30
 70
     1
102
RTVSPropertyOp31
 70
     1
102
RTVSPropertyOp32
 70
     1
102
RTVSPropertyOp33
 70
     1
102
RTVSPropertyOp34
 70
     1
102
RTVSPropertyOp35
 70
     1
102
RTVSPropertyOp36
 70
     1
102
RTVSPropertyOp37
 70
     1
102
RTVSPropertyOp38
 70
     1
102
RTVSPropertyOp39
 70
     1
102
RTVSPropertyOp40
 70
     1
102
RTVSPropertyOp41
 70
     1
102
RTVSPropertyOp42
 70
     1
102
RTVSPropertyOp43
 70
     1
102
RTVSPropertyOp44
 70
     1
102
RTVSPropertyOp45
 70
     1
102
RTVSPropertyOp46
 70
     1
102
RTVSPropertyOp47
 70
     1
102
RTVSPropertyOp48
 70
     1
102
RTVSPropertyOp49
 70
     1
102
RTVSPropertyOp50
 70
     1
102
RTVSPropertyOp51
 70
     0
102
RTVSPropertyOp52
 70
     0
102
RTVSPropertyOp53
 70
     1
102
RTVSPropertyOp54
 70
     1
102
RTVSPropertyOp55
 70
     1
102
RTVSPropertyOp56
 70
     1
102
RTVSPropertyOp57
 70
     1
102
RTVSPropertyOp58
 70
     1
102
RTVSPropertyOp59
 70
     1
102
RTVSPropertyOp60
 70
     1
102
RTVSPropertyOp61
 70
     1
102
RTVSPropertyOp62
 70
     1
  0
XRECORD
  5
49E
102
{ACAD_REACTORS
330
49D
102
}
330
49D
100
AcDbXrecord
280
     1
102
RTVSPost2010Prop28
280
     0
102
RTVSPost2010PropOp28
 70
     1
102
RTVSPost2010Prop29
280
     1
102
RTVSPost2010PropOp29
 70
     1
102
RTVSPost2010Prop30
280
     1
102
RTVSPost2010PropOp30
 70
     1
102
RTVSPost2010Prop31
280
     0
102
RTVSPost2010PropOp31
 70
     1
102
RTVSPost2010Prop32
280
     0
102
RTVSPost2010PropOp32
 70
     1
102
RTVSPost2010Prop33
280
     0
102
RTVSPost2010PropOp33
 70
     1
102
RTVSPost2010Prop34
280
     0
102
RTVSPost2010PropOp34
 70
     1
102
RTVSPost2010Prop35
280
     0
102
RTVSPost2010PropOp35
 70
     1
102
RTVSPost2010Prop36
280
     0
102
RTVSPost2010PropOp36
 70
     1
102
RTVSPost2010Prop37
 90
       50
102
RTVSPost2010PropOp37
 70
     1
102
RTVSPost2010Prop38
140
0.0
102
RTVSPost2010PropOp38
 70
     1
102
RTVSPost2010Prop39
140
1.0
102
RTVSPost2010PropOp39
 70
     1
102
RTVSPost2010Prop40
 90
        0
102
RTVSPost2010PropOp40
 70
     1
102
RTVSPost2010Prop41ColorIndex
 90
       18
102
RTVSPost2010Prop41ColorRGB
 90
        0
102
RTVSPost2010PropOp41
 70
     1
102
RTVSPost2010Prop42
 90
       50
102
RTVSPost2010PropOp42
 70
     1
102
RTVSPost2010Prop43
 90
        3
102
RTVSPost2010PropOp43
 70
     1
102
RTVSPost2010Prop44ColorIndex
 90
        5
102
RTVSPost2010Prop44ColorRGB
 90
      255
102
RTVSPost2010PropOp44
 70
     1
102
RTVSPost2010Prop45
280
     0
102
RTVSPost2010PropOp45
 70
     1
102
RTVSPost2010Prop46
 90
       50
102
RTVSPost2010PropOp46
 70
     1
102
RTVSPost2010Prop47
 90
       50
102
RTVSPost2010PropOp47
 70
     1
102
RTVSPost2010Prop48
 90
       50
102
RTVSPost2010PropOp48
 70
     1
102
RTVSPost2010Prop49
280
     0
102
RTVSPost2010PropOp49
 70
     1
102
RTVSPost2010Prop50
 90
       50
102
RTVSPost2010PropOp50
 70
     1
102
RTVSPost2010Prop51ColorIndex
 90
      256
102
RTVSPost2010Prop51ColorRGB
 90
-16777216
102
RTVSPost2010PropOp51
 70
     0
102
RTVSPost2010Prop52
140
1.0
102
RTVSPost2010PropOp52
 70
     0
102
RTVSPost2010Prop53
 90
        2
102
RTVSPost2010PropOp53
 70
     1
102
RTVSPost2010Prop54
  1
strokes_ogs.tif
102
RTVSPost2010PropOp54
 70
     1
102
RTVSPost2010Prop55
280
     0
102
RTVSPost2010PropOp55
 70
     1
102
RTVSPost2010Prop56
140
1.0
102
RTVSPost2010PropOp56
 70
     1
102
RTVSPost2010Prop57
140
1.0
102
RTVSPost2010PropOp57
 70
     1
102
RTVSPropertyOp0
 70
     1
102
RTVSPropertyOp1
 70
     1
102
RTVSPropertyOp2
 70
     1
102
RTVSPropertyOp3
 70
     1
102
RTVSPropertyOp4
 70
     1
102
RTVSPropertyOp5
 70
     1
102
RTVSPropertyOp6
 70
     1
102
RTVSPropertyOp7
 70
     1
102
RTVSPropertyOp8
 70
     1
102
RTVSPropertyOp9
 70
     1
102
RTVSPropertyOp10
 70
     1
102
RTVSPropertyOp11
 70
     1
102
RTVSPropertyOp12
 70
     1
102
RTVSPropertyOp13
 70
     1
102
RTVSPropertyOp14
 70
     1
102
RTVSPropertyOp15
 70
     1
102
RTVSPropertyOp16
 70
     1
102
RTVSPropertyOp17
 70
     1
102
RTVSPropertyOp18
 70
     1
102
RTVSPropertyOp19
 70
     1
102
RTVSPropertyOp20
 70
     1
102
RTVSPropertyOp21
 70
     1
102
RTVSPropertyOp22
 70
     1
102
RTVSPropertyOp23
 70
     1
102
RTVSPropertyOp24
 70
     1
102
RTVSPropertyOp25
 70
     1
102
RTVSPropertyOp26
 70
     1
102
RTVSPropertyOp27
 70
     1
102
RTVSPropertyOp28
 70
     1
102
RTVSPropertyOp29
 70
     1
102
RTVSPropertyOp30
 70
     1
102
RTVSPropertyOp31
 70
     1
102
RTVSPropertyOp32
 70
     1
102
RTVSPropertyOp33
 70
     1
102
RTVSPropertyOp34
 70
     1
102
RTVSPropertyOp35
 70
     1
102
RTVSPropertyOp36
 70
     1
102
RTVSPropertyOp37
 70
     1
102
RTVSPropertyOp38
 70
     1
102
RTVSPropertyOp39
 70
     1
102
RTVSPropertyOp40
 70
     1
102
RTVSPropertyOp41
 70
     1
102
RTVSPropertyOp42
 70
     1
102
RTVSPropertyOp43
 70
     1
102
RTVSPropertyOp44
 70
     1
102
RTVSPropertyOp45
 70
     1
102
RTVSPropertyOp46
 70
     1
102
RTVSPropertyOp47
 70
     1
102
RTVSPropertyOp48
 70
     1
102
RTVSPropertyOp49
 70
     1
102
RTVSPropertyOp50
 70
     1
102
RTVSPropertyOp51
 70
     0
102
RTVSPropertyOp52
 70
     0
102
RTVSPropertyOp53
 70
     1
102
RTVSPropertyOp54
 70
     1
102
RTVSPropertyOp55
 70
     1
102
RTVSPropertyOp56
 70
     1
102
RTVSPropertyOp57
 70
     1
102
RTVSPropertyOp58
 70
     1
102
RTVSPropertyOp59
 70
     1
102
RTVSPropertyOp60
 70
     1
102
RTVSPropertyOp61
 70
     1
102
RTVSPropertyOp62
 70
     1
  0
XRECORD
  5
4A0
102
{ACAD_REACTORS
330
49F
102
}
330
49F
100
AcDbXrecord
280
     1
102
RTVSPost2010Prop28
280
     0
102
RTVSPost2010PropOp28
 70
     1
102
RTVSPost2010Prop29
280
     1
102
RTVSPost2010PropOp29
 70
     1
102
RTVSPost2010Prop30
280
     1
102
RTVSPost2010PropOp30
 70
     1
102
RTVSPost2010Prop31
280
     0
102
RTVSPost2010PropOp31
 70
     1
102
RTVSPost2010Prop32
280
     0
102
RTVSPost2010PropOp32
 70
     1
102
RTVSPost2010Prop33
280
     0
102
RTVSPost2010PropOp33
 70
     1
102
RTVSPost2010Prop34
280
     0
102
RTVSPost2010PropOp34
 70
     1
102
RTVSPost2010Prop35
280
     0
102
RTVSPost2010PropOp35
 70
     1
102
RTVSPost2010Prop36
280
     0
102
RTVSPost2010PropOp36
 70
     1
102
RTVSPost2010Prop37
 90
       50
102
RTVSPost2010PropOp37
 70
     1
102
RTVSPost2010Prop38
140
0.0
102
RTVSPost2010PropOp38
 70
     1
102
RTVSPost2010Prop39
140
1.0
102
RTVSPost2010PropOp39
 70
     1
102
RTVSPost2010Prop40
 90
        0
102
RTVSPost2010PropOp40
 70
     1
102
RTVSPost2010Prop41ColorIndex
 90
       18
102
RTVSPost2010Prop41ColorRGB
 90
        0
102
RTVSPost2010PropOp41
 70
     1
102
RTVSPost2010Prop42
 90
       50
102
RTVSPost2010PropOp42
 70
     1
102
RTVSPost2010Prop43
 90
        3
102
RTVSPost2010PropOp43
 70
     1
102
RTVSPost2010Prop44ColorIndex
 90
        5
102
RTVSPost2010Prop44ColorRGB
 90
      255
102
RTVSPost2010PropOp44
 70
     1
102
RTVSPost2010Prop45
280
     0
102
RTVSPost2010PropOp45
 70
     1
102
RTVSPost2010Prop46
 90
       50
102
RTVSPost2010PropOp46
 70
     1
102
RTVSPost2010Prop47
 90
       50
102
RTVSPost2010PropOp47
 70
     1
102
RTVSPost2010Prop48
 90
       50
102
RTVSPost2010PropOp48
 70
     1
102
RTVSPost2010Prop49
280
     0
102
RTVSPost2010PropOp49
 70
     1
102
RTVSPost2010Prop50
 90
       50
102
RTVSPost2010PropOp50
 70
     1
102
RTVSPost2010Prop51ColorIndex
 90
      256
102
RTVSPost2010Prop51ColorRGB
 90
-16777216
102
RTVSPost2010PropOp51
 70
     0
102
RTVSPost2010Prop52
140
1.0
102
RTVSPost2010PropOp52
 70
     0
102
RTVSPost2010Prop53
 90
        2
102
RTVSPost2010PropOp53
 70
     1
102
RTVSPost2010Prop54
  1
strokes_ogs.tif
102
RTVSPost2010PropOp54
 70
     1
102
RTVSPost2010Prop55
280
     0
102
RTVSPost2010PropOp55
 70
     1
102
RTVSPost2010Prop56
140
1.0
102
RTVSPost2010PropOp56
 70
     1
102
RTVSPost2010Prop57
140
1.0
102
RTVSPost2010PropOp57
 70
     1
102
RTVSPropertyOp0
 70
     1
102
RTVSPropertyOp1
 70
     1
102
RTVSPropertyOp2
 70
     1
102
RTVSPropertyOp3
 70
     1
102
RTVSPropertyOp4
 70
     1
102
RTVSPropertyOp5
 70
     1
102
RTVSPropertyOp6
 70
     1
102
RTVSPropertyOp7
 70
     1
102
RTVSPropertyOp8
 70
     1
102
RTVSPropertyOp9
 70
     1
102
RTVSPropertyOp10
 70
     1
102
RTVSPropertyOp11
 70
     1
102
RTVSPropertyOp12
 70
     1
102
RTVSPropertyOp13
 70
     1
102
RTVSPropertyOp14
 70
     1
102
RTVSPropertyOp15
 70
     1
102
RTVSPropertyOp16
 70
     1
102
RTVSPropertyOp17
 70
     1
102
RTVSPropertyOp18
 70
     1
102
RTVSPropertyOp19
 70
     1
102
RTVSPropertyOp20
 70
     1
102
RTVSPropertyOp21
 70
     1
102
RTVSPropertyOp22
 70
     1
102
RTVSPropertyOp23
 70
     1
102
RTVSPropertyOp24
 70
     1
102
RTVSPropertyOp25
 70
     1
102
RTVSPropertyOp26
 70
     1
102
RTVSPropertyOp27
 70
     1
102
RTVSPropertyOp28
 70
     1
102
RTVSPropertyOp29
 70
     1
102
RTVSPropertyOp30
 70
     1
102
RTVSPropertyOp31
 70
     1
102
RTVSPropertyOp32
 70
     1
102
RTVSPropertyOp33
 70
     1
102
RTVSPropertyOp34
 70
     1
102
RTVSPropertyOp35
 70
     1
102
RTVSPropertyOp36
 70
     1
102
RTVSPropertyOp37
 70
     1
102
RTVSPropertyOp38
 70
     1
102
RTVSPropertyOp39
 70
     1
102
RTVSPropertyOp40
 70
     1
102
RTVSPropertyOp41
 70
     1
102
RTVSPropertyOp42
 70
     1
102
RTVSPropertyOp43
 70
     1
102
RTVSPropertyOp44
 70
     1
102
RTVSPropertyOp45
 70
     1
102
RTVSPropertyOp46
 70
     1
102
RTVSPropertyOp47
 70
     1
102
RTVSPropertyOp48
 70
     1
102
RTVSPropertyOp49
 70
     1
102
RTVSPropertyOp50
 70
     1
102
RTVSPropertyOp51
 70
     0
102
RTVSPropertyOp52
 70
     0
102
RTVSPropertyOp53
 70
     1
102
RTVSPropertyOp54
 70
     1
102
RTVSPropertyOp55
 70
     1
102
RTVSPropertyOp56
 70
     1
102
RTVSPropertyOp57
 70
     1
102
RTVSPropertyOp58
 70
     1
102
RTVSPropertyOp59
 70
     1
102
RTVSPropertyOp60
 70
     1
102
RTVSPropertyOp61
 70
     1
102
RTVSPropertyOp62
 70
     1
  0
XRECORD
  5
4A2
102
{ACAD_REACTORS
330
4A1
102
}
330
4A1
100
AcDbXrecord
280
     1
102
RTVSPost2010Prop28
280
     0
102
RTVSPost2010PropOp28
 70
     1
102
RTVSPost2010Prop29
280
     1
102
RTVSPost2010PropOp29
 70
     1
102
RTVSPost2010Prop30
280
     1
102
RTVSPost2010PropOp30
 70
     1
102
RTVSPost2010Prop31
280
     0
102
RTVSPost2010PropOp31
 70
     1
102
RTVSPost2010Prop32
280
     0
102
RTVSPost2010PropOp32
 70
     1
102
RTVSPost2010Prop33
280
     0
102
RTVSPost2010PropOp33
 70
     1
102
RTVSPost2010Prop34
280
     0
102
RTVSPost2010PropOp34
 70
     1
102
RTVSPost2010Prop35
280
     0
102
RTVSPost2010PropOp35
 70
     1
102
RTVSPost2010Prop36
280
     0
102
RTVSPost2010PropOp36
 70
     1
102
RTVSPost2010Prop37
 90
       50
102
RTVSPost2010PropOp37
 70
     1
102
RTVSPost2010Prop38
140
0.0
102
RTVSPost2010PropOp38
 70
     1
102
RTVSPost2010Prop39
140
1.0
102
RTVSPost2010PropOp39
 70
     1
102
RTVSPost2010Prop40
 90
        0
102
RTVSPost2010PropOp40
 70
     1
102
RTVSPost2010Prop41ColorIndex
 90
       18
102
RTVSPost2010Prop41ColorRGB
 90
        0
102
RTVSPost2010PropOp41
 70
     1
102
RTVSPost2010Prop42
 90
       50
102
RTVSPost2010PropOp42
 70
     1
102
RTVSPost2010Prop43
 90
        3
102
RTVSPost2010PropOp43
 70
     1
102
RTVSPost2010Prop44ColorIndex
 90
        5
102
RTVSPost2010Prop44ColorRGB
 90
      255
102
RTVSPost2010PropOp44
 70
     1
102
RTVSPost2010Prop45
280
     0
102
RTVSPost2010PropOp45
 70
     1
102
RTVSPost2010Prop46
 90
       50
102
RTVSPost2010PropOp46
 70
     1
102
RTVSPost2010Prop47
 90
       50
102
RTVSPost2010PropOp47
 70
     1
102
RTVSPost2010Prop48
 90
       50
102
RTVSPost2010PropOp48
 70
     1
102
RTVSPost2010Prop49
280
     0
102
RTVSPost2010PropOp49
 70
     1
102
RTVSPost2010Prop50
 90
       50
102
RTVSPost2010PropOp50
 70
     1
102
RTVSPost2010Prop51ColorIndex
 90
      256
102
RTVSPost2010Prop51ColorRGB
 90
-16777216
102
RTVSPost2010PropOp51
 70
     0
102
RTVSPost2010Prop52
140
1.0
102
RTVSPost2010PropOp52
 70
     0
102
RTVSPost2010Prop53
 90
        2
102
RTVSPost2010PropOp53
 70
     1
102
RTVSPost2010Prop54
  1
strokes_ogs.tif
102
RTVSPost2010PropOp54
 70
     1
102
RTVSPost2010Prop55
280
     0
102
RTVSPost2010PropOp55
 70
     1
102
RTVSPost2010Prop56
140
1.0
102
RTVSPost2010PropOp56
 70
     1
102
RTVSPost2010Prop57
140
1.0
102
RTVSPost2010PropOp57
 70
     1
102
RTVSPropertyOp0
 70
     1
102
RTVSPropertyOp1
 70
     1
102
RTVSPropertyOp2
 70
     1
102
RTVSPropertyOp3
 70
     1
102
RTVSPropertyOp4
 70
     1
102
RTVSPropertyOp5
 70
     1
102
RTVSPropertyOp6
 70
     1
102
RTVSPropertyOp7
 70
     1
102
RTVSPropertyOp8
 70
     1
102
RTVSPropertyOp9
 70
     1
102
RTVSPropertyOp10
 70
     1
102
RTVSPropertyOp11
 70
     1
102
RTVSPropertyOp12
 70
     1
102
RTVSPropertyOp13
 70
     1
102
RTVSPropertyOp14
 70
     1
102
RTVSPropertyOp15
 70
     1
102
RTVSPropertyOp16
 70
     1
102
RTVSPropertyOp17
 70
     1
102
RTVSPropertyOp18
 70
     1
102
RTVSPropertyOp19
 70
     1
102
RTVSPropertyOp20
 70
     1
102
RTVSPropertyOp21
 70
     1
102
RTVSPropertyOp22
 70
     1
102
RTVSPropertyOp23
 70
     1
102
RTVSPropertyOp24
 70
     1
102
RTVSPropertyOp25
 70
     1
102
RTVSPropertyOp26
 70
     1
102
RTVSPropertyOp27
 70
     1
102
RTVSPropertyOp28
 70
     1
102
RTVSPropertyOp29
 70
     1
102
RTVSPropertyOp30
 70
     1
102
RTVSPropertyOp31
 70
     1
102
RTVSPropertyOp32
 70
     1
102
RTVSPropertyOp33
 70
     1
102
RTVSPropertyOp34
 70
     1
102
RTVSPropertyOp35
 70
     1
102
RTVSPropertyOp36
 70
     1
102
RTVSPropertyOp37
 70
     1
102
RTVSPropertyOp38
 70
     1
102
RTVSPropertyOp39
 70
     1
102
RTVSPropertyOp40
 70
     1
102
RTVSPropertyOp41
 70
     1
102
RTVSPropertyOp42
 70
     1
102
RTVSPropertyOp43
 70
     1
102
RTVSPropertyOp44
 70
     1
102
RTVSPropertyOp45
 70
     1
102
RTVSPropertyOp46
 70
     1
102
RTVSPropertyOp47
 70
     1
102
RTVSPropertyOp48
 70
     1
102
RTVSPropertyOp49
 70
     1
102
RTVSPropertyOp50
 70
     1
102
RTVSPropertyOp51
 70
     0
102
RTVSPropertyOp52
 70
     0
102
RTVSPropertyOp53
 70
     1
102
RTVSPropertyOp54
 70
     1
102
RTVSPropertyOp55
 70
     1
102
RTVSPropertyOp56
 70
     1
102
RTVSPropertyOp57
 70
     1
102
RTVSPropertyOp58
 70
     1
102
RTVSPropertyOp59
 70
     1
102
RTVSPropertyOp60
 70
     1
102
RTVSPropertyOp61
 70
     1
102
RTVSPropertyOp62
 70
     1
  0
XRECORD
  5
4A4
102
{ACAD_REACTORS
330
4A3
102
}
330
4A3
100
AcDbXrecord
280
     1
102
RTVSPost2010Prop28
280
     0
102
RTVSPost2010PropOp28
 70
     1
102
RTVSPost2010Prop29
280
     1
102
RTVSPost2010PropOp29
 70
     1
102
RTVSPost2010Prop30
280
     1
102
RTVSPost2010PropOp30
 70
     1
102
RTVSPost2010Prop31
280
     0
102
RTVSPost2010PropOp31
 70
     1
102
RTVSPost2010Prop32
280
     0
102
RTVSPost2010PropOp32
 70
     1
102
RTVSPost2010Prop33
280
     0
102
RTVSPost2010PropOp33
 70
     1
102
RTVSPost2010Prop34
280
     0
102
RTVSPost2010PropOp34
 70
     1
102
RTVSPost2010Prop35
280
     0
102
RTVSPost2010PropOp35
 70
     1
102
RTVSPost2010Prop36
280
     0
102
RTVSPost2010PropOp36
 70
     1
102
RTVSPost2010Prop37
 90
       50
102
RTVSPost2010PropOp37
 70
     1
102
RTVSPost2010Prop38
140
0.0
102
RTVSPost2010PropOp38
 70
     1
102
RTVSPost2010Prop39
140
1.0
102
RTVSPost2010PropOp39
 70
     1
102
RTVSPost2010Prop40
 90
        0
102
RTVSPost2010PropOp40
 70
     1
102
RTVSPost2010Prop41ColorIndex
 90
       18
102
RTVSPost2010Prop41ColorRGB
 90
        0
102
RTVSPost2010PropOp41
 70
     1
102
RTVSPost2010Prop42
 90
       50
102
RTVSPost2010PropOp42
 70
     1
102
RTVSPost2010Prop43
 90
        3
102
RTVSPost2010PropOp43
 70
     1
102
RTVSPost2010Prop44ColorIndex
 90
        5
102
RTVSPost2010Prop44ColorRGB
 90
      255
102
RTVSPost2010PropOp44
 70
     1
102
RTVSPost2010Prop45
280
     0
102
RTVSPost2010PropOp45
 70
     1
102
RTVSPost2010Prop46
 90
       50
102
RTVSPost2010PropOp46
 70
     1
102
RTVSPost2010Prop47
 90
       50
102
RTVSPost2010PropOp47
 70
     1
102
RTVSPost2010Prop48
 90
       50
102
RTVSPost2010PropOp48
 70
     1
102
RTVSPost2010Prop49
280
     0
102
RTVSPost2010PropOp49
 70
     1
102
RTVSPost2010Prop50
 90
       50
102
RTVSPost2010PropOp50
 70
     1
102
RTVSPost2010Prop51ColorIndex
 90
      256
102
RTVSPost2010Prop51ColorRGB
 90
-16777216
102
RTVSPost2010PropOp51
 70
     0
102
RTVSPost2010Prop52
140
1.0
102
RTVSPost2010PropOp52
 70
     0
102
RTVSPost2010Prop53
 90
        2
102
RTVSPost2010PropOp53
 70
     1
102
RTVSPost2010Prop54
  1
strokes_ogs.tif
102
RTVSPost2010PropOp54
 70
     1
102
RTVSPost2010Prop55
280
     0
102
RTVSPost2010PropOp55
 70
     1
102
RTVSPost2010Prop56
140
1.0
102
RTVSPost2010PropOp56
 70
     1
102
RTVSPost2010Prop57
140
1.0
102
RTVSPost2010PropOp57
 70
     1
102
RTVSPropertyOp0
 70
     1
102
RTVSPropertyOp1
 70
     1
102
RTVSPropertyOp2
 70
     1
102
RTVSPropertyOp3
 70
     1
102
RTVSPropertyOp4
 70
     1
102
RTVSPropertyOp5
 70
     1
102
RTVSPropertyOp6
 70
     1
102
RTVSPropertyOp7
 70
     1
102
RTVSPropertyOp8
 70
     1
102
RTVSPropertyOp9
 70
     1
102
RTVSPropertyOp10
 70
     1
102
RTVSPropertyOp11
 70
     1
102
RTVSPropertyOp12
 70
     1
102
RTVSPropertyOp13
 70
     1
102
RTVSPropertyOp14
 70
     1
102
RTVSPropertyOp15
 70
     1
102
RTVSPropertyOp16
 70
     1
102
RTVSPropertyOp17
 70
     1
102
RTVSPropertyOp18
 70
     1
102
RTVSPropertyOp19
 70
     1
102
RTVSPropertyOp20
 70
     1
102
RTVSPropertyOp21
 70
     1
102
RTVSPropertyOp22
 70
     1
102
RTVSPropertyOp23
 70
     1
102
RTVSPropertyOp24
 70
     1
102
RTVSPropertyOp25
 70
     1
102
RTVSPropertyOp26
 70
     1
102
RTVSPropertyOp27
 70
     1
102
RTVSPropertyOp28
 70
     1
102
RTVSPropertyOp29
 70
     1
102
RTVSPropertyOp30
 70
     1
102
RTVSPropertyOp31
 70
     1
102
RTVSPropertyOp32
 70
     1
102
RTVSPropertyOp33
 70
     1
102
RTVSPropertyOp34
 70
     1
102
RTVSPropertyOp35
 70
     1
102
RTVSPropertyOp36
 70
     1
102
RTVSPropertyOp37
 70
     1
102
RTVSPropertyOp38
 70
     1
102
RTVSPropertyOp39
 70
     1
102
RTVSPropertyOp40
 70
     1
102
RTVSPropertyOp41
 70
     1
102
RTVSPropertyOp42
 70
     1
102
RTVSPropertyOp43
 70
     1
102
RTVSPropertyOp44
 70
     1
102
RTVSPropertyOp45
 70
     1
102
RTVSPropertyOp46
 70
     1
102
RTVSPropertyOp47
 70
     1
102
RTVSPropertyOp48
 70
     1
102
RTVSPropertyOp49
 70
     1
102
RTVSPropertyOp50
 70
     1
102
RTVSPropertyOp51
 70
     0
102
RTVSPropertyOp52
 70
     0
102
RTVSPropertyOp53
 70
     1
102
RTVSPropertyOp54
 70
     1
102
RTVSPropertyOp55
 70
     1
102
RTVSPropertyOp56
 70
     1
102
RTVSPropertyOp57
 70
     1
102
RTVSPropertyOp58
 70
     1
102
RTVSPropertyOp59
 70
     1
102
RTVSPropertyOp60
 70
     1
102
RTVSPropertyOp61
 70
     1
102
RTVSPropertyOp62
 70
     1
  0
XRECORD
  5
4AA
102
{ACAD_REACTORS
330
4A9
102
}
330
4A9
100
AcDbXrecord
280
     1
102
RTVSPost2010Prop28
280
     0
102
RTVSPost2010PropOp28
 70
     1
102
RTVSPost2010Prop29
280
     1
102
RTVSPost2010PropOp29
 70
     1
102
RTVSPost2010Prop30
280
     1
102
RTVSPost2010PropOp30
 70
     1
102
RTVSPost2010Prop31
280
     0
102
RTVSPost2010PropOp31
 70
     1
102
RTVSPost2010Prop32
280
     0
102
RTVSPost2010PropOp32
 70
     1
102
RTVSPost2010Prop33
280
     0
102
RTVSPost2010PropOp33
 70
     1
102
RTVSPost2010Prop34
280
     0
102
RTVSPost2010PropOp34
 70
     1
102
RTVSPost2010Prop35
280
     0
102
RTVSPost2010PropOp35
 70
     1
102
RTVSPost2010Prop36
280
     0
102
RTVSPost2010PropOp36
 70
     1
102
RTVSPost2010Prop37
 90
       50
102
RTVSPost2010PropOp37
 70
     1
102
RTVSPost2010Prop38
140
0.0
102
RTVSPost2010PropOp38
 70
     1
102
RTVSPost2010Prop39
140
1.0
102
RTVSPost2010PropOp39
 70
     1
102
RTVSPost2010Prop40
 90
        0
102
RTVSPost2010PropOp40
 70
     1
102
RTVSPost2010Prop41ColorIndex
 90
       18
102
RTVSPost2010Prop41ColorRGB
 90
        0
102
RTVSPost2010PropOp41
 70
     1
102
RTVSPost2010Prop42
 90
       50
102
RTVSPost2010PropOp42
 70
     1
102
RTVSPost2010Prop43
 90
        3
102
RTVSPost2010PropOp43
 70
     1
102
RTVSPost2010Prop44ColorIndex
 90
        5
102
RTVSPost2010Prop44ColorRGB
 90
      255
102
RTVSPost2010PropOp44
 70
     1
102
RTVSPost2010Prop45
280
     0
102
RTVSPost2010PropOp45
 70
     1
102
RTVSPost2010Prop46
 90
       50
102
RTVSPost2010PropOp46
 70
     1
102
RTVSPost2010Prop47
 90
       50
102
RTVSPost2010PropOp47
 70
     1
102
RTVSPost2010Prop48
 90
       50
102
RTVSPost2010PropOp48
 70
     1
102
RTVSPost2010Prop49
280
     0
102
RTVSPost2010PropOp49
 70
     1
102
RTVSPost2010Prop50
 90
       50
102
RTVSPost2010PropOp50
 70
     1
102
RTVSPost2010Prop51ColorIndex
 90
      256
102
RTVSPost2010Prop51ColorRGB
 90
-16777216
102
RTVSPost2010PropOp51
 70
     0
102
RTVSPost2010Prop52
140
1.0
102
RTVSPost2010PropOp52
 70
     0
102
RTVSPost2010Prop53
 90
        2
102
RTVSPost2010PropOp53
 70
     1
102
RTVSPost2010Prop54
  1
strokes_ogs.tif
102
RTVSPost2010PropOp54
 70
     1
102
RTVSPost2010Prop55
280
     0
102
RTVSPost2010PropOp55
 70
     1
102
RTVSPost2010Prop56
140
1.0
102
RTVSPost2010PropOp56
 70
     1
102
RTVSPost2010Prop57
140
1.0
102
RTVSPost2010PropOp57
 70
     1
102
RTVSPropertyOp0
 70
     1
102
RTVSPropertyOp1
 70
     1
102
RTVSPropertyOp2
 70
     1
102
RTVSPropertyOp3
 70
     1
102
RTVSPropertyOp4
 70
     1
102
RTVSPropertyOp5
 70
     1
102
RTVSPropertyOp6
 70
     1
102
RTVSPropertyOp7
 70
     1
102
RTVSPropertyOp8
 70
     1
102
RTVSPropertyOp9
 70
     1
102
RTVSPropertyOp10
 70
     1
102
RTVSPropertyOp11
 70
     1
102
RTVSPropertyOp12
 70
     1
102
RTVSPropertyOp13
 70
     1
102
RTVSPropertyOp14
 70
     1
102
RTVSPropertyOp15
 70
     1
102
RTVSPropertyOp16
 70
     1
102
RTVSPropertyOp17
 70
     1
102
RTVSPropertyOp18
 70
     1
102
RTVSPropertyOp19
 70
     1
102
RTVSPropertyOp20
 70
     1
102
RTVSPropertyOp21
 70
     1
102
RTVSPropertyOp22
 70
     1
102
RTVSPropertyOp23
 70
     1
102
RTVSPropertyOp24
 70
     1
102
RTVSPropertyOp25
 70
     1
102
RTVSPropertyOp26
 70
     1
102
RTVSPropertyOp27
 70
     1
102
RTVSPropertyOp28
 70
     1
102
RTVSPropertyOp29
 70
     1
102
RTVSPropertyOp30
 70
     1
102
RTVSPropertyOp31
 70
     1
102
RTVSPropertyOp32
 70
     1
102
RTVSPropertyOp33
 70
     1
102
RTVSPropertyOp34
 70
     1
102
RTVSPropertyOp35
 70
     1
102
RTVSPropertyOp36
 70
     1
102
RTVSPropertyOp37
 70
     1
102
RTVSPropertyOp38
 70
     1
102
RTVSPropertyOp39
 70
     1
102
RTVSPropertyOp40
 70
     1
102
RTVSPropertyOp41
 70
     1
102
RTVSPropertyOp42
 70
     1
102
RTVSPropertyOp43
 70
     1
102
RTVSPropertyOp44
 70
     1
102
RTVSPropertyOp45
 70
     1
102
RTVSPropertyOp46
 70
     1
102
RTVSPropertyOp47
 70
     1
102
RTVSPropertyOp48
 70
     1
102
RTVSPropertyOp49
 70
     1
102
RTVSPropertyOp50
 70
     1
102
RTVSPropertyOp51
 70
     0
102
RTVSPropertyOp52
 70
     0
102
RTVSPropertyOp53
 70
     1
102
RTVSPropertyOp54
 70
     1
102
RTVSPropertyOp55
 70
     1
102
RTVSPropertyOp56
 70
     1
102
RTVSPropertyOp57
 70
     1
102
RTVSPropertyOp58
 70
     1
102
RTVSPropertyOp59
 70
     1
102
RTVSPropertyOp60
 70
     1
102
RTVSPropertyOp61
 70
     1
102
RTVSPropertyOp62
 70
     1
  0
XRECORD
  5
4BE
102
{ACAD_REACTORS
330
4BD
102
}
330
4BD
100
AcDbXrecord
280
     1
102
RTVSPost2010Prop28
280
     0
102
RTVSPost2010PropOp28
 70
     1
102
RTVSPost2010Prop29
280
     1
102
RTVSPost2010PropOp29
 70
     1
102
RTVSPost2010Prop30
280
     1
102
RTVSPost2010PropOp30
 70
     1
102
RTVSPost2010Prop31
280
     0
102
RTVSPost2010PropOp31
 70
     1
102
RTVSPost2010Prop32
280
     0
102
RTVSPost2010PropOp32
 70
     1
102
RTVSPost2010Prop33
280
     0
102
RTVSPost2010PropOp33
 70
     1
102
RTVSPost2010Prop34
280
     0
102
RTVSPost2010PropOp34
 70
     1
102
RTVSPost2010Prop35
280
     0
102
RTVSPost2010PropOp35
 70
     1
102
RTVSPost2010Prop36
280
     0
102
RTVSPost2010PropOp36
 70
     1
102
RTVSPost2010Prop37
 90
       50
102
RTVSPost2010PropOp37
 70
     1
102
RTVSPost2010Prop38
140
0.0
102
RTVSPost2010PropOp38
 70
     1
102
RTVSPost2010Prop39
140
1.0
102
RTVSPost2010PropOp39
 70
     1
102
RTVSPost2010Prop40
 90
        0
102
RTVSPost2010PropOp40
 70
     1
102
RTVSPost2010Prop41ColorIndex
 90
       18
102
RTVSPost2010Prop41ColorRGB
 90
        0
102
RTVSPost2010PropOp41
 70
     1
102
RTVSPost2010Prop42
 90
       50
102
RTVSPost2010PropOp42
 70
     1
102
RTVSPost2010Prop43
 90
        3
102
RTVSPost2010PropOp43
 70
     1
102
RTVSPost2010Prop44ColorIndex
 90
        5
102
RTVSPost2010Prop44ColorRGB
 90
      255
102
RTVSPost2010PropOp44
 70
     1
102
RTVSPost2010Prop45
280
     0
102
RTVSPost2010PropOp45
 70
     1
102
RTVSPost2010Prop46
 90
       50
102
RTVSPost2010PropOp46
 70
     1
102
RTVSPost2010Prop47
 90
       50
102
RTVSPost2010PropOp47
 70
     1
102
RTVSPost2010Prop48
 90
       50
102
RTVSPost2010PropOp48
 70
     1
102
RTVSPost2010Prop49
280
     0
102
RTVSPost2010PropOp49
 70
     1
102
RTVSPost2010Prop50
 90
       50
102
RTVSPost2010PropOp50
 70
     1
102
RTVSPost2010Prop51ColorIndex
 90
      256
102
RTVSPost2010Prop51ColorRGB
 90
-16777216
102
RTVSPost2010PropOp51
 70
     0
102
RTVSPost2010Prop52
140
1.0
102
RTVSPost2010PropOp52
 70
     0
102
RTVSPost2010Prop53
 90
        2
102
RTVSPost2010PropOp53
 70
     1
102
RTVSPost2010Prop54
  1
strokes_ogs.tif
102
RTVSPost2010PropOp54
 70
     1
102
RTVSPost2010Prop55
280
     0
102
RTVSPost2010PropOp55
 70
     1
102
RTVSPost2010Prop56
140
1.0
102
RTVSPost2010PropOp56
 70
     1
102
RTVSPost2010Prop57
140
1.0
102
RTVSPost2010PropOp57
 70
     1
102
RTVSPropertyOp0
 70
     0
102
RTVSPropertyOp1
 70
     0
102
RTVSPropertyOp2
 70
     0
102
RTVSPropertyOp3
 70
     0
102
RTVSPropertyOp4
 70
     0
102
RTVSPropertyOp5
 70
     0
102
RTVSPropertyOp6
 70
     0
102
RTVSPropertyOp7
 70
     0
102
RTVSPropertyOp8
 70
     0
102
RTVSPropertyOp9
 70
     0
102
RTVSPropertyOp10
 70
     0
102
RTVSPropertyOp11
 70
     0
102
RTVSPropertyOp12
 70
     0
102
RTVSPropertyOp13
 70
     0
102
RTVSPropertyOp14
 70
     0
102
RTVSPropertyOp15
 70
     0
102
RTVSPropertyOp16
 70
     0
102
RTVSPropertyOp17
 70
     0
102
RTVSPropertyOp18
 70
     0
102
RTVSPropertyOp19
 70
     0
102
RTVSPropertyOp20
 70
     0
102
RTVSPropertyOp21
 70
     0
102
RTVSPropertyOp22
 70
     0
102
RTVSPropertyOp23
 70
     0
102
RTVSPropertyOp24
 70
     0
102
RTVSPropertyOp25
 70
     0
102
RTVSPropertyOp26
 70
     0
102
RTVSPropertyOp27
 70
     0
102
RTVSPropertyOp28
 70
     1
102
RTVSPropertyOp29
 70
     1
102
RTVSPropertyOp30
 70
     1
102
RTVSPropertyOp31
 70
     1
102
RTVSPropertyOp32
 70
     1
102
RTVSPropertyOp33
 70
     1
102
RTVSPropertyOp34
 70
     1
102
RTVSPropertyOp35
 70
     1
102
RTVSPropertyOp36
 70
     1
102
RTVSPropertyOp37
 70
     1
102
RTVSPropertyOp38
 70
     1
102
RTVSPropertyOp39
 70
     1
102
RTVSPropertyOp40
 70
     1
102
RTVSPropertyOp41
 70
     1
102
RTVSPropertyOp42
 70
     1
102
RTVSPropertyOp43
 70
     1
102
RTVSPropertyOp44
 70
     1
102
RTVSPropertyOp45
 70
     1
102
RTVSPropertyOp46
 70
     1
102
RTVSPropertyOp47
 70
     1
102
RTVSPropertyOp48
 70
     1
102
RTVSPropertyOp49
 70
     1
102
RTVSPropertyOp50
 70
     1
102
RTVSPropertyOp51
 70
     0
102
RTVSPropertyOp52
 70
     0
102
RTVSPropertyOp53
 70
     1
102
RTVSPropertyOp54
 70
     1
102
RTVSPropertyOp55
 70
     1
102
RTVSPropertyOp56
 70
     1
102
RTVSPropertyOp57
 70
     1
102
RTVSPropertyOp58
 70
     1
102
RTVSPropertyOp59
 70
     1
102
RTVSPropertyOp60
 70
     1
102
RTVSPropertyOp61
 70
     1
102
RTVSPropertyOp62
 70
     1
  0
XRECORD
  5
4B8
102
{ACAD_REACTORS
330
4B7
102
}
330
4B7
100
AcDbXrecord
280
     1
102
RTVSPost2010Prop28
280
     0
102
RTVSPost2010PropOp28
 70
     1
102
RTVSPost2010Prop29
280
     1
102
RTVSPost2010PropOp29
 70
     1
102
RTVSPost2010Prop30
280
     1
102
RTVSPost2010PropOp30
 70
     1
102
RTVSPost2010Prop31
280
     0
102
RTVSPost2010PropOp31
 70
     1
102
RTVSPost2010Prop32
280
     0
102
RTVSPost2010PropOp32
 70
     1
102
RTVSPost2010Prop33
280
     0
102
RTVSPost2010PropOp33
 70
     1
102
RTVSPost2010Prop34
280
     0
102
RTVSPost2010PropOp34
 70
     1
102
RTVSPost2010Prop35
280
     0
102
RTVSPost2010PropOp35
 70
     1
102
RTVSPost2010Prop36
280
     0
102
RTVSPost2010PropOp36
 70
     1
102
RTVSPost2010Prop37
 90
       50
102
RTVSPost2010PropOp37
 70
     1
102
RTVSPost2010Prop38
140
0.0
102
RTVSPost2010PropOp38
 70
     1
102
RTVSPost2010Prop39
140
1.0
102
RTVSPost2010PropOp39
 70
     1
102
RTVSPost2010Prop40
 90
        0
102
RTVSPost2010PropOp40
 70
     1
102
RTVSPost2010Prop41ColorIndex
 90
       18
102
RTVSPost2010Prop41ColorRGB
 90
        0
102
RTVSPost2010PropOp41
 70
     1
102
RTVSPost2010Prop42
 90
       50
102
RTVSPost2010PropOp42
 70
     1
102
RTVSPost2010Prop43
 90
        3
102
RTVSPost2010PropOp43
 70
     1
102
RTVSPost2010Prop44ColorIndex
 90
        5
102
RTVSPost2010Prop44ColorRGB
 90
      255
102
RTVSPost2010PropOp44
 70
     1
102
RTVSPost2010Prop45
280
     0
102
RTVSPost2010PropOp45
 70
     1
102
RTVSPost2010Prop46
 90
       50
102
RTVSPost2010PropOp46
 70
     1
102
RTVSPost2010Prop47
 90
       50
102
RTVSPost2010PropOp47
 70
     1
102
RTVSPost2010Prop48
 90
       50
102
RTVSPost2010PropOp48
 70
     1
102
RTVSPost2010Prop49
280
     0
102
RTVSPost2010PropOp49
 70
     1
102
RTVSPost2010Prop50
 90
       50
102
RTVSPost2010PropOp50
 70
     1
102
RTVSPost2010Prop51ColorIndex
 90
      256
102
RTVSPost2010Prop51ColorRGB
 90
-16777216
102
RTVSPost2010PropOp51
 70
     0
102
RTVSPost2010Prop52
140
1.0
102
RTVSPost2010PropOp52
 70
     0
102
RTVSPost2010Prop53
 90
        2
102
RTVSPost2010PropOp53
 70
     1
102
RTVSPost2010Prop54
  1
strokes_ogs.tif
102
RTVSPost2010PropOp54
 70
     1
102
RTVSPost2010Prop55
280
     0
102
RTVSPost2010PropOp55
 70
     1
102
RTVSPost2010Prop56
140
1.0
102
RTVSPost2010PropOp56
 70
     1
102
RTVSPost2010Prop57
140
1.0
102
RTVSPost2010PropOp57
 70
     1
102
RTVSPropertyOp0
 70
     1
102
RTVSPropertyOp1
 70
     1
102
RTVSPropertyOp2
 70
     1
102
RTVSPropertyOp3
 70
     1
102
RTVSPropertyOp4
 70
     1
102
RTVSPropertyOp5
 70
     1
102
RTVSPropertyOp6
 70
     1
102
RTVSPropertyOp7
 70
     1
102
RTVSPropertyOp8
 70
     1
102
RTVSPropertyOp9
 70
     1
102
RTVSPropertyOp10
 70
     1
102
RTVSPropertyOp11
 70
     1
102
RTVSPropertyOp12
 70
     1
102
RTVSPropertyOp13
 70
     1
102
RTVSPropertyOp14
 70
     1
102
RTVSPropertyOp15
 70
     1
102
RTVSPropertyOp16
 70
     1
102
RTVSPropertyOp17
 70
     1
102
RTVSPropertyOp18
 70
     1
102
RTVSPropertyOp19
 70
     1
102
RTVSPropertyOp20
 70
     1
102
RTVSPropertyOp21
 70
     1
102
RTVSPropertyOp22
 70
     1
102
RTVSPropertyOp23
 70
     1
102
RTVSPropertyOp24
 70
     1
102
RTVSPropertyOp25
 70
     1
102
RTVSPropertyOp26
 70
     1
102
RTVSPropertyOp27
 70
     1
102
RTVSPropertyOp28
 70
     1
102
RTVSPropertyOp29
 70
     1
102
RTVSPropertyOp30
 70
     1
102
RTVSPropertyOp31
 70
     1
102
RTVSPropertyOp32
 70
     1
102
RTVSPropertyOp33
 70
     1
102
RTVSPropertyOp34
 70
     1
102
RTVSPropertyOp35
 70
     1
102
RTVSPropertyOp36
 70
     1
102
RTVSPropertyOp37
 70
     1
102
RTVSPropertyOp38
 70
     1
102
RTVSPropertyOp39
 70
     1
102
RTVSPropertyOp40
 70
     1
102
RTVSPropertyOp41
 70
     1
102
RTVSPropertyOp42
 70
     1
102
RTVSPropertyOp43
 70
     1
102
RTVSPropertyOp44
 70
     1
102
RTVSPropertyOp45
 70
     1
102
RTVSPropertyOp46
 70
     1
102
RTVSPropertyOp47
 70
     1
102
RTVSPropertyOp48
 70
     1
102
RTVSPropertyOp49
 70
     1
102
RTVSPropertyOp50
 70
     1
102
RTVSPropertyOp51
 70
     0
102
RTVSPropertyOp52
 70
     0
102
RTVSPropertyOp53
 70
     1
102
RTVSPropertyOp54
 70
     1
102
RTVSPropertyOp55
 70
     1
102
RTVSPropertyOp56
 70
     1
102
RTVSPropertyOp57
 70
     1
102
RTVSPropertyOp58
 70
     1
102
RTVSPropertyOp59
 70
     1
102
RTVSPropertyOp60
 70
     1
102
RTVSPropertyOp61
 70
     1
102
RTVSPropertyOp62
 70
     1
  0
XRECORD
  5
4C0
102
{ACAD_REACTORS
330
4BF
102
}
330
4BF
100
AcDbXrecord
280
     1
102
RTVSPost2010Prop28
280
     0
102
RTVSPost2010PropOp28
 70
     1
102
RTVSPost2010Prop29
280
     1
102
RTVSPost2010PropOp29
 70
     1
102
RTVSPost2010Prop30
280
     1
102
RTVSPost2010PropOp30
 70
     1
102
RTVSPost2010Prop31
280
     0
102
RTVSPost2010PropOp31
 70
     1
102
RTVSPost2010Prop32
280
     0
102
RTVSPost2010PropOp32
 70
     1
102
RTVSPost2010Prop33
280
     0
102
RTVSPost2010PropOp33
 70
     1
102
RTVSPost2010Prop34
280
     0
102
RTVSPost2010PropOp34
 70
     1
102
RTVSPost2010Prop35
280
     0
102
RTVSPost2010PropOp35
 70
     1
102
RTVSPost2010Prop36
280
     0
102
RTVSPost2010PropOp36
 70
     1
102
RTVSPost2010Prop37
 90
       50
102
RTVSPost2010PropOp37
 70
     1
102
RTVSPost2010Prop38
140
0.0
102
RTVSPost2010PropOp38
 70
     1
102
RTVSPost2010Prop39
140
1.0
102
RTVSPost2010PropOp39
 70
     1
102
RTVSPost2010Prop40
 90
        0
102
RTVSPost2010PropOp40
 70
     1
102
RTVSPost2010Prop41ColorIndex
 90
       18
102
RTVSPost2010Prop41ColorRGB
 90
        0
102
RTVSPost2010PropOp41
 70
     1
102
RTVSPost2010Prop42
 90
       50
102
RTVSPost2010PropOp42
 70
     1
102
RTVSPost2010Prop43
 90
        3
102
RTVSPost2010PropOp43
 70
     1
102
RTVSPost2010Prop44ColorIndex
 90
        5
102
RTVSPost2010Prop44ColorRGB
 90
      255
102
RTVSPost2010PropOp44
 70
     1
102
RTVSPost2010Prop45
280
     0
102
RTVSPost2010PropOp45
 70
     1
102
RTVSPost2010Prop46
 90
       50
102
RTVSPost2010PropOp46
 70
     1
102
RTVSPost2010Prop47
 90
       50
102
RTVSPost2010PropOp47
 70
     1
102
RTVSPost2010Prop48
 90
       50
102
RTVSPost2010PropOp48
 70
     1
102
RTVSPost2010Prop49
280
     0
102
RTVSPost2010PropOp49
 70
     1
102
RTVSPost2010Prop50
 90
       50
102
RTVSPost2010PropOp50
 70
     1
102
RTVSPost2010Prop51ColorIndex
 90
      256
102
RTVSPost2010Prop51ColorRGB
 90
-16777216
102
RTVSPost2010PropOp51
 70
     0
102
RTVSPost2010Prop52
140
1.0
102
RTVSPost2010PropOp52
 70
     0
102
RTVSPost2010Prop53
 90
        2
102
RTVSPost2010PropOp53
 70
     1
102
RTVSPost2010Prop54
  1
strokes_ogs.tif
102
RTVSPost2010PropOp54
 70
     1
102
RTVSPost2010Prop55
280
     0
102
RTVSPost2010PropOp55
 70
     1
102
RTVSPost2010Prop56
140
1.0
102
RTVSPost2010PropOp56
 70
     1
102
RTVSPost2010Prop57
140
1.0
102
RTVSPost2010PropOp57
 70
     1
102
RTVSPropertyOp0
 70
     0
102
RTVSPropertyOp1
 70
     0
102
RTVSPropertyOp2
 70
     0
102
RTVSPropertyOp3
 70
     0
102
RTVSPropertyOp4
 70
     0
102
RTVSPropertyOp5
 70
     0
102
RTVSPropertyOp6
 70
     0
102
RTVSPropertyOp7
 70
     0
102
RTVSPropertyOp8
 70
     0
102
RTVSPropertyOp9
 70
     0
102
RTVSPropertyOp10
 70
     0
102
RTVSPropertyOp11
 70
     0
102
RTVSPropertyOp12
 70
     0
102
RTVSPropertyOp13
 70
     0
102
RTVSPropertyOp14
 70
     0
102
RTVSPropertyOp15
 70
     0
102
RTVSPropertyOp16
 70
     0
102
RTVSPropertyOp17
 70
     0
102
RTVSPropertyOp18
 70
     0
102
RTVSPropertyOp19
 70
     0
102
RTVSPropertyOp20
 70
     0
102
RTVSPropertyOp21
 70
     0
102
RTVSPropertyOp22
 70
     0
102
RTVSPropertyOp23
 70
     0
102
RTVSPropertyOp24
 70
     0
102
RTVSPropertyOp25
 70
     0
102
RTVSPropertyOp26
 70
     0
102
RTVSPropertyOp27
 70
     0
102
RTVSPropertyOp28
 70
     1
102
RTVSPropertyOp29
 70
     1
102
RTVSPropertyOp30
 70
     1
102
RTVSPropertyOp31
 70
     1
102
RTVSPropertyOp32
 70
     1
102
RTVSPropertyOp33
 70
     1
102
RTVSPropertyOp34
 70
     1
102
RTVSPropertyOp35
 70
     1
102
RTVSPropertyOp36
 70
     1
102
RTVSPropertyOp37
 70
     1
102
RTVSPropertyOp38
 70
     1
102
RTVSPropertyOp39
 70
     1
102
RTVSPropertyOp40
 70
     1
102
RTVSPropertyOp41
 70
     1
102
RTVSPropertyOp42
 70
     1
102
RTVSPropertyOp43
 70
     1
102
RTVSPropertyOp44
 70
     1
102
RTVSPropertyOp45
 70
     1
102
RTVSPropertyOp46
 70
     1
102
RTVSPropertyOp47
 70
     1
102
RTVSPropertyOp48
 70
     1
102
RTVSPropertyOp49
 70
     1
102
RTVSPropertyOp50
 70
     1
102
RTVSPropertyOp51
 70
     0
102
RTVSPropertyOp52
 70
     0
102
RTVSPropertyOp53
 70
     1
102
RTVSPropertyOp54
 70
     1
102
RTVSPropertyOp55
 70
     1
102
RTVSPropertyOp56
 70
     1
102
RTVSPropertyOp57
 70
     1
102
RTVSPropertyOp58
 70
     1
102
RTVSPropertyOp59
 70
     1
102
RTVSPropertyOp60
 70
     1
102
RTVSPropertyOp61
 70
     1
102
RTVSPropertyOp62
 70
     1
  0
XRECORD
  5
4AE
102
{ACAD_REACTORS
330
4AD
102
}
330
4AD
100
AcDbXrecord
280
     1
102
RTVSPost2010Prop28
280
     0
102
RTVSPost2010PropOp28
 70
     1
102
RTVSPost2010Prop29
280
     1
102
RTVSPost2010PropOp29
 70
     1
102
RTVSPost2010Prop30
280
     1
102
RTVSPost2010PropOp30
 70
     1
102
RTVSPost2010Prop31
280
     0
102
RTVSPost2010PropOp31
 70
     1
102
RTVSPost2010Prop32
280
     0
102
RTVSPost2010PropOp32
 70
     1
102
RTVSPost2010Prop33
280
     0
102
RTVSPost2010PropOp33
 70
     1
102
RTVSPost2010Prop34
280
     0
102
RTVSPost2010PropOp34
 70
     1
102
RTVSPost2010Prop35
280
     0
102
RTVSPost2010PropOp35
 70
     1
102
RTVSPost2010Prop36
280
     0
102
RTVSPost2010PropOp36
 70
     1
102
RTVSPost2010Prop37
 90
       50
102
RTVSPost2010PropOp37
 70
     1
102
RTVSPost2010Prop38
140
0.0
102
RTVSPost2010PropOp38
 70
     1
102
RTVSPost2010Prop39
140
1.0
102
RTVSPost2010PropOp39
 70
     1
102
RTVSPost2010Prop40
 90
        0
102
RTVSPost2010PropOp40
 70
     1
102
RTVSPost2010Prop41ColorIndex
 90
       18
102
RTVSPost2010Prop41ColorRGB
 90
        0
102
RTVSPost2010PropOp41
 70
     1
102
RTVSPost2010Prop42
 90
       50
102
RTVSPost2010PropOp42
 70
     1
102
RTVSPost2010Prop43
 90
        3
102
RTVSPost2010PropOp43
 70
     1
102
RTVSPost2010Prop44ColorIndex
 90
        5
102
RTVSPost2010Prop44ColorRGB
 90
      255
102
RTVSPost2010PropOp44
 70
     1
102
RTVSPost2010Prop45
280
     0
102
RTVSPost2010PropOp45
 70
     1
102
RTVSPost2010Prop46
 90
       50
102
RTVSPost2010PropOp46
 70
     1
102
RTVSPost2010Prop47
 90
       50
102
RTVSPost2010PropOp47
 70
     1
102
RTVSPost2010Prop48
 90
       50
102
RTVSPost2010PropOp48
 70
     1
102
RTVSPost2010Prop49
280
     0
102
RTVSPost2010PropOp49
 70
     1
102
RTVSPost2010Prop50
 90
       50
102
RTVSPost2010PropOp50
 70
     1
102
RTVSPost2010Prop51ColorIndex
 90
      256
102
RTVSPost2010Prop51ColorRGB
 90
-16777216
102
RTVSPost2010PropOp51
 70
     0
102
RTVSPost2010Prop52
140
1.0
102
RTVSPost2010PropOp52
 70
     0
102
RTVSPost2010Prop53
 90
        2
102
RTVSPost2010PropOp53
 70
     1
102
RTVSPost2010Prop54
  1
strokes_ogs.tif
102
RTVSPost2010PropOp54
 70
     1
102
RTVSPost2010Prop55
280
     0
102
RTVSPost2010PropOp55
 70
     1
102
RTVSPost2010Prop56
140
1.0
102
RTVSPost2010PropOp56
 70
     1
102
RTVSPost2010Prop57
140
1.0
102
RTVSPost2010PropOp57
 70
     1
102
RTVSPropertyOp0
 70
     1
102
RTVSPropertyOp1
 70
     1
102
RTVSPropertyOp2
 70
     1
102
RTVSPropertyOp3
 70
     1
102
RTVSPropertyOp4
 70
     1
102
RTVSPropertyOp5
 70
     1
102
RTVSPropertyOp6
 70
     1
102
RTVSPropertyOp7
 70
     1
102
RTVSPropertyOp8
 70
     1
102
RTVSPropertyOp9
 70
     1
102
RTVSPropertyOp10
 70
     1
102
RTVSPropertyOp11
 70
     1
102
RTVSPropertyOp12
 70
     1
102
RTVSPropertyOp13
 70
     1
102
RTVSPropertyOp14
 70
     1
102
RTVSPropertyOp15
 70
     1
102
RTVSPropertyOp16
 70
     1
102
RTVSPropertyOp17
 70
     1
102
RTVSPropertyOp18
 70
     1
102
RTVSPropertyOp19
 70
     1
102
RTVSPropertyOp20
 70
     1
102
RTVSPropertyOp21
 70
     1
102
RTVSPropertyOp22
 70
     1
102
RTVSPropertyOp23
 70
     1
102
RTVSPropertyOp24
 70
     1
102
RTVSPropertyOp25
 70
     1
102
RTVSPropertyOp26
 70
     1
102
RTVSPropertyOp27
 70
     1
102
RTVSPropertyOp28
 70
     1
102
RTVSPropertyOp29
 70
     1
102
RTVSPropertyOp30
 70
     1
102
RTVSPropertyOp31
 70
     1
102
RTVSPropertyOp32
 70
     1
102
RTVSPropertyOp33
 70
     1
102
RTVSPropertyOp34
 70
     1
102
RTVSPropertyOp35
 70
     1
102
RTVSPropertyOp36
 70
     1
102
RTVSPropertyOp37
 70
     1
102
RTVSPropertyOp38
 70
     1
102
RTVSPropertyOp39
 70
     1
102
RTVSPropertyOp40
 70
     1
102
RTVSPropertyOp41
 70
     1
102
RTVSPropertyOp42
 70
     1
102
RTVSPropertyOp43
 70
     1
102
RTVSPropertyOp44
 70
     1
102
RTVSPropertyOp45
 70
     1
102
RTVSPropertyOp46
 70
     1
102
RTVSPropertyOp47
 70
     1
102
RTVSPropertyOp48
 70
     1
102
RTVSPropertyOp49
 70
     1
102
RTVSPropertyOp50
 70
     1
102
RTVSPropertyOp51
 70
     0
102
RTVSPropertyOp52
 70
     0
102
RTVSPropertyOp53
 70
     1
102
RTVSPropertyOp54
 70
     1
102
RTVSPropertyOp55
 70
     1
102
RTVSPropertyOp56
 70
     1
102
RTVSPropertyOp57
 70
     1
102
RTVSPropertyOp58
 70
     1
102
RTVSPropertyOp59
 70
     1
102
RTVSPropertyOp60
 70
     1
102
RTVSPropertyOp61
 70
     1
102
RTVSPropertyOp62
 70
     1
  0
XRECORD
  5
4CC
102
{ACAD_REACTORS
330
4CB
102
}
330
4CB
100
AcDbXrecord
280
     1
102
RTVSPost2010Prop28
280
     0
102
RTVSPost2010PropOp28
 70
     1
102
RTVSPost2010Prop29
280
     1
102
RTVSPost2010PropOp29
 70
     1
102
RTVSPost2010Prop30
280
     1
102
RTVSPost2010PropOp30
 70
     1
102
RTVSPost2010Prop31
280
     0
102
RTVSPost2010PropOp31
 70
     1
102
RTVSPost2010Prop32
280
     0
102
RTVSPost2010PropOp32
 70
     1
102
RTVSPost2010Prop33
280
     0
102
RTVSPost2010PropOp33
 70
     1
102
RTVSPost2010Prop34
280
     0
102
RTVSPost2010PropOp34
 70
     1
102
RTVSPost2010Prop35
280
     0
102
RTVSPost2010PropOp35
 70
     1
102
RTVSPost2010Prop36
280
     0
102
RTVSPost2010PropOp36
 70
     1
102
RTVSPost2010Prop37
 90
       50
102
RTVSPost2010PropOp37
 70
     1
102
RTVSPost2010Prop38
140
0.0
102
RTVSPost2010PropOp38
 70
     1
102
RTVSPost2010Prop39
140
1.0
102
RTVSPost2010PropOp39
 70
     1
102
RTVSPost2010Prop40
 90
        0
102
RTVSPost2010PropOp40
 70
     1
102
RTVSPost2010Prop41ColorIndex
 90
       18
102
RTVSPost2010Prop41ColorRGB
 90
        0
102
RTVSPost2010PropOp41
 70
     1
102
RTVSPost2010Prop42
 90
       50
102
RTVSPost2010PropOp42
 70
     1
102
RTVSPost2010Prop43
 90
        3
102
RTVSPost2010PropOp43
 70
     1
102
RTVSPost2010Prop44ColorIndex
 90
        5
102
RTVSPost2010Prop44ColorRGB
 90
      255
102
RTVSPost2010PropOp44
 70
     1
102
RTVSPost2010Prop45
280
     0
102
RTVSPost2010PropOp45
 70
     1
102
RTVSPost2010Prop46
 90
       50
102
RTVSPost2010PropOp46
 70
     1
102
RTVSPost2010Prop47
 90
       50
102
RTVSPost2010PropOp47
 70
     1
102
RTVSPost2010Prop48
 90
       50
102
RTVSPost2010PropOp48
 70
     1
102
RTVSPost2010Prop49
280
     0
102
RTVSPost2010PropOp49
 70
     1
102
RTVSPost2010Prop50
 90
       50
102
RTVSPost2010PropOp50
 70
     1
102
RTVSPost2010Prop51ColorIndex
 90
      256
102
RTVSPost2010Prop51ColorRGB
 90
-16777216
102
RTVSPost2010PropOp51
 70
     0
102
RTVSPost2010Prop52
140
1.0
102
RTVSPost2010PropOp52
 70
     0
102
RTVSPost2010Prop53
 90
        2
102
RTVSPost2010PropOp53
 70
     1
102
RTVSPost2010Prop54
  1
strokes_ogs.tif
102
RTVSPost2010PropOp54
 70
     1
102
RTVSPost2010Prop55
280
     0
102
RTVSPost2010PropOp55
 70
     1
102
RTVSPost2010Prop56
140
1.0
102
RTVSPost2010PropOp56
 70
     1
102
RTVSPost2010Prop57
140
1.0
102
RTVSPost2010PropOp57
 70
     1
102
RTVSPropertyOp0
 70
     1
102
RTVSPropertyOp1
 70
     1
102
RTVSPropertyOp2
 70
     1
102
RTVSPropertyOp3
 70
     1
102
RTVSPropertyOp4
 70
     1
102
RTVSPropertyOp5
 70
     1
102
RTVSPropertyOp6
 70
     1
102
RTVSPropertyOp7
 70
     1
102
RTVSPropertyOp8
 70
     1
102
RTVSPropertyOp9
 70
     1
102
RTVSPropertyOp10
 70
     1
102
RTVSPropertyOp11
 70
     1
102
RTVSPropertyOp12
 70
     1
102
RTVSPropertyOp13
 70
     1
102
RTVSPropertyOp14
 70
     1
102
RTVSPropertyOp15
 70
     1
102
RTVSPropertyOp16
 70
     1
102
RTVSPropertyOp17
 70
     1
102
RTVSPropertyOp18
 70
     1
102
RTVSPropertyOp19
 70
     1
102
RTVSPropertyOp20
 70
     1
102
RTVSPropertyOp21
 70
     1
102
RTVSPropertyOp22
 70
     1
102
RTVSPropertyOp23
 70
     1
102
RTVSPropertyOp24
 70
     1
102
RTVSPropertyOp25
 70
     1
102
RTVSPropertyOp26
 70
     1
102
RTVSPropertyOp27
 70
     1
102
RTVSPropertyOp28
 70
     1
102
RTVSPropertyOp29
 70
     1
102
RTVSPropertyOp30
 70
     1
102
RTVSPropertyOp31
 70
     1
102
RTVSPropertyOp32
 70
     1
102
RTVSPropertyOp33
 70
     1
102
RTVSPropertyOp34
 70
     1
102
RTVSPropertyOp35
 70
     1
102
RTVSPropertyOp36
 70
     1
102
RTVSPropertyOp37
 70
     1
102
RTVSPropertyOp38
 70
     1
102
RTVSPropertyOp39
 70
     1
102
RTVSPropertyOp40
 70
     1
102
RTVSPropertyOp41
 70
     1
102
RTVSPropertyOp42
 70
     1
102
RTVSPropertyOp43
 70
     1
102
RTVSPropertyOp44
 70
     1
102
RTVSPropertyOp45
 70
     1
102
RTVSPropertyOp46
 70
     1
102
RTVSPropertyOp47
 70
     1
102
RTVSPropertyOp48
 70
     1
102
RTVSPropertyOp49
 70
     1
102
RTVSPropertyOp50
 70
     1
102
RTVSPropertyOp51
 70
     0
102
RTVSPropertyOp52
 70
     0
102
RTVSPropertyOp53
 70
     1
102
RTVSPropertyOp54
 70
     1
102
RTVSPropertyOp55
 70
     1
102
RTVSPropertyOp56
 70
     1
102
RTVSPropertyOp57
 70
     1
102
RTVSPropertyOp58
 70
     1
102
RTVSPropertyOp59
 70
     1
102
RTVSPropertyOp60
 70
     1
102
RTVSPropertyOp61
 70
     1
102
RTVSPropertyOp62
 70
     1
  0
XRECORD
  5
4CA
102
{ACAD_REACTORS
330
4C9
102
}
330
4C9
100
AcDbXrecord
280
     1
102
RTVSPost2010Prop28
280
     0
102
RTVSPost2010PropOp28
 70
     1
102
RTVSPost2010Prop29
280
     1
102
RTVSPost2010PropOp29
 70
     1
102
RTVSPost2010Prop30
280
     1
102
RTVSPost2010PropOp30
 70
     1
102
RTVSPost2010Prop31
280
     0
102
RTVSPost2010PropOp31
 70
     1
102
RTVSPost2010Prop32
280
     0
102
RTVSPost2010PropOp32
 70
     1
102
RTVSPost2010Prop33
280
     0
102
RTVSPost2010PropOp33
 70
     1
102
RTVSPost2010Prop34
280
     0
102
RTVSPost2010PropOp34
 70
     1
102
RTVSPost2010Prop35
280
     0
102
RTVSPost2010PropOp35
 70
     1
102
RTVSPost2010Prop36
280
     0
102
RTVSPost2010PropOp36
 70
     1
102
RTVSPost2010Prop37
 90
       50
102
RTVSPost2010PropOp37
 70
     1
102
RTVSPost2010Prop38
140
0.0
102
RTVSPost2010PropOp38
 70
     1
102
RTVSPost2010Prop39
140
1.0
102
RTVSPost2010PropOp39
 70
     1
102
RTVSPost2010Prop40
 90
        0
102
RTVSPost2010PropOp40
 70
     1
102
RTVSPost2010Prop41ColorIndex
 90
       18
102
RTVSPost2010Prop41ColorRGB
 90
        0
102
RTVSPost2010PropOp41
 70
     1
102
RTVSPost2010Prop42
 90
       50
102
RTVSPost2010PropOp42
 70
     1
102
RTVSPost2010Prop43
 90
        3
102
RTVSPost2010PropOp43
 70
     1
102
RTVSPost2010Prop44ColorIndex
 90
        5
102
RTVSPost2010Prop44ColorRGB
 90
      255
102
RTVSPost2010PropOp44
 70
     1
102
RTVSPost2010Prop45
280
     0
102
RTVSPost2010PropOp45
 70
     1
102
RTVSPost2010Prop46
 90
       50
102
RTVSPost2010PropOp46
 70
     1
102
RTVSPost2010Prop47
 90
       50
102
RTVSPost2010PropOp47
 70
     1
102
RTVSPost2010Prop48
 90
       50
102
RTVSPost2010PropOp48
 70
     1
102
RTVSPost2010Prop49
280
     0
102
RTVSPost2010PropOp49
 70
     1
102
RTVSPost2010Prop50
 90
       50
102
RTVSPost2010PropOp50
 70
     1
102
RTVSPost2010Prop51ColorIndex
 90
      256
102
RTVSPost2010Prop51ColorRGB
 90
-16777216
102
RTVSPost2010PropOp51
 70
     0
102
RTVSPost2010Prop52
140
1.0
102
RTVSPost2010PropOp52
 70
     0
102
RTVSPost2010Prop53
 90
        2
102
RTVSPost2010PropOp53
 70
     1
102
RTVSPost2010Prop54
  1
strokes_ogs.tif
102
RTVSPost2010PropOp54
 70
     1
102
RTVSPost2010Prop55
280
     0
102
RTVSPost2010PropOp55
 70
     1
102
RTVSPost2010Prop56
140
1.0
102
RTVSPost2010PropOp56
 70
     1
102
RTVSPost2010Prop57
140
1.0
102
RTVSPost2010PropOp57
 70
     1
102
RTVSPropertyOp0
 70
     1
102
RTVSPropertyOp1
 70
     1
102
RTVSPropertyOp2
 70
     1
102
RTVSPropertyOp3
 70
     1
102
RTVSPropertyOp4
 70
     1
102
RTVSPropertyOp5
 70
     1
102
RTVSPropertyOp6
 70
     1
102
RTVSPropertyOp7
 70
     1
102
RTVSPropertyOp8
 70
     1
102
RTVSPropertyOp9
 70
     1
102
RTVSPropertyOp10
 70
     1
102
RTVSPropertyOp11
 70
     1
102
RTVSPropertyOp12
 70
     1
102
RTVSPropertyOp13
 70
     1
102
RTVSPropertyOp14
 70
     1
102
RTVSPropertyOp15
 70
     1
102
RTVSPropertyOp16
 70
     1
102
RTVSPropertyOp17
 70
     1
102
RTVSPropertyOp18
 70
     1
102
RTVSPropertyOp19
 70
     1
102
RTVSPropertyOp20
 70
     1
102
RTVSPropertyOp21
 70
     1
102
RTVSPropertyOp22
 70
     1
102
RTVSPropertyOp23
 70
     1
102
RTVSPropertyOp24
 70
     1
102
RTVSPropertyOp25
 70
     1
102
RTVSPropertyOp26
 70
     1
102
RTVSPropertyOp27
 70
     1
102
RTVSPropertyOp28
 70
     1
102
RTVSPropertyOp29
 70
     1
102
RTVSPropertyOp30
 70
     1
102
RTVSPropertyOp31
 70
     1
102
RTVSPropertyOp32
 70
     1
102
RTVSPropertyOp33
 70
     1
102
RTVSPropertyOp34
 70
     1
102
RTVSPropertyOp35
 70
     1
102
RTVSPropertyOp36
 70
     1
102
RTVSPropertyOp37
 70
     1
102
RTVSPropertyOp38
 70
     1
102
RTVSPropertyOp39
 70
     1
102
RTVSPropertyOp40
 70
     1
102
RTVSPropertyOp41
 70
     1
102
RTVSPropertyOp42
 70
     1
102
RTVSPropertyOp43
 70
     1
102
RTVSPropertyOp44
 70
     1
102
RTVSPropertyOp45
 70
     1
102
RTVSPropertyOp46
 70
     1
102
RTVSPropertyOp47
 70
     1
102
RTVSPropertyOp48
 70
     1
102
RTVSPropertyOp49
 70
     1
102
RTVSPropertyOp50
 70
     1
102
RTVSPropertyOp51
 70
     0
102
RTVSPropertyOp52
 70
     0
102
RTVSPropertyOp53
 70
     1
102
RTVSPropertyOp54
 70
     1
102
RTVSPropertyOp55
 70
     1
102
RTVSPropertyOp56
 70
     1
102
RTVSPropertyOp57
 70
     1
102
RTVSPropertyOp58
 70
     1
102
RTVSPropertyOp59
 70
     1
102
RTVSPropertyOp60
 70
     1
102
RTVSPropertyOp61
 70
     1
102
RTVSPropertyOp62
 70
     1
  0
XRECORD
  5
4C4
102
{ACAD_REACTORS
330
4C3
102
}
330
4C3
100
AcDbXrecord
280
     1
102
RTVSPost2010Prop28
280
     0
102
RTVSPost2010PropOp28
 70
     1
102
RTVSPost2010Prop29
280
     1
102
RTVSPost2010PropOp29
 70
     1
102
RTVSPost2010Prop30
280
     1
102
RTVSPost2010PropOp30
 70
     1
102
RTVSPost2010Prop31
280
     0
102
RTVSPost2010PropOp31
 70
     1
102
RTVSPost2010Prop32
280
     0
102
RTVSPost2010PropOp32
 70
     1
102
RTVSPost2010Prop33
280
     0
102
RTVSPost2010PropOp33
 70
     1
102
RTVSPost2010Prop34
280
     0
102
RTVSPost2010PropOp34
 70
     1
102
RTVSPost2010Prop35
280
     0
102
RTVSPost2010PropOp35
 70
     1
102
RTVSPost2010Prop36
280
     0
102
RTVSPost2010PropOp36
 70
     1
102
RTVSPost2010Prop37
 90
       50
102
RTVSPost2010PropOp37
 70
     1
102
RTVSPost2010Prop38
140
0.0
102
RTVSPost2010PropOp38
 70
     1
102
RTVSPost2010Prop39
140
1.0
102
RTVSPost2010PropOp39
 70
     1
102
RTVSPost2010Prop40
 90
        0
102
RTVSPost2010PropOp40
 70
     1
102
RTVSPost2010Prop41ColorIndex
 90
       18
102
RTVSPost2010Prop41ColorRGB
 90
        0
102
RTVSPost2010PropOp41
 70
     1
102
RTVSPost2010Prop42
 90
       50
102
RTVSPost2010PropOp42
 70
     1
102
RTVSPost2010Prop43
 90
        3
102
RTVSPost2010PropOp43
 70
     1
102
RTVSPost2010Prop44ColorIndex
 90
        5
102
RTVSPost2010Prop44ColorRGB
 90
      255
102
RTVSPost2010PropOp44
 70
     1
102
RTVSPost2010Prop45
280
     0
102
RTVSPost2010PropOp45
 70
     1
102
RTVSPost2010Prop46
 90
       50
102
RTVSPost2010PropOp46
 70
     1
102
RTVSPost2010Prop47
 90
       50
102
RTVSPost2010PropOp47
 70
     1
102
RTVSPost2010Prop48
 90
       50
102
RTVSPost2010PropOp48
 70
     1
102
RTVSPost2010Prop49
280
     0
102
RTVSPost2010PropOp49
 70
     1
102
RTVSPost2010Prop50
 90
       50
102
RTVSPost2010PropOp50
 70
     1
102
RTVSPost2010Prop51ColorIndex
 90
      256
102
RTVSPost2010Prop51ColorRGB
 90
-16777216
102
RTVSPost2010PropOp51
 70
     0
102
RTVSPost2010Prop52
140
1.0
102
RTVSPost2010PropOp52
 70
     0
102
RTVSPost2010Prop53
 90
        2
102
RTVSPost2010PropOp53
 70
     1
102
RTVSPost2010Prop54
  1
strokes_ogs.tif
102
RTVSPost2010PropOp54
 70
     1
102
RTVSPost2010Prop55
280
     0
102
RTVSPost2010PropOp55
 70
     1
102
RTVSPost2010Prop56
140
1.0
102
RTVSPost2010PropOp56
 70
     1
102
RTVSPost2010Prop57
140
1.0
102
RTVSPost2010PropOp57
 70
     1
102
RTVSPropertyOp0
 70
     1
102
RTVSPropertyOp1
 70
     1
102
RTVSPropertyOp2
 70
     1
102
RTVSPropertyOp3
 70
     1
102
RTVSPropertyOp4
 70
     1
102
RTVSPropertyOp5
 70
     1
102
RTVSPropertyOp6
 70
     1
102
RTVSPropertyOp7
 70
     1
102
RTVSPropertyOp8
 70
     1
102
RTVSPropertyOp9
 70
     1
102
RTVSPropertyOp10
 70
     1
102
RTVSPropertyOp11
 70
     1
102
RTVSPropertyOp12
 70
     1
102
RTVSPropertyOp13
 70
     1
102
RTVSPropertyOp14
 70
     1
102
RTVSPropertyOp15
 70
     1
102
RTVSPropertyOp16
 70
     1
102
RTVSPropertyOp17
 70
     1
102
RTVSPropertyOp18
 70
     1
102
RTVSPropertyOp19
 70
     1
102
RTVSPropertyOp20
 70
     1
102
RTVSPropertyOp21
 70
     1
102
RTVSPropertyOp22
 70
     1
102
RTVSPropertyOp23
 70
     1
102
RTVSPropertyOp24
 70
     1
102
RTVSPropertyOp25
 70
     1
102
RTVSPropertyOp26
 70
     1
102
RTVSPropertyOp27
 70
     1
102
RTVSPropertyOp28
 70
     1
102
RTVSPropertyOp29
 70
     1
102
RTVSPropertyOp30
 70
     1
102
RTVSPropertyOp31
 70
     1
102
RTVSPropertyOp32
 70
     1
102
RTVSPropertyOp33
 70
     1
102
RTVSPropertyOp34
 70
     1
102
RTVSPropertyOp35
 70
     1
102
RTVSPropertyOp36
 70
     1
102
RTVSPropertyOp37
 70
     1
102
RTVSPropertyOp38
 70
     1
102
RTVSPropertyOp39
 70
     1
102
RTVSPropertyOp40
 70
     1
102
RTVSPropertyOp41
 70
     1
102
RTVSPropertyOp42
 70
     1
102
RTVSPropertyOp43
 70
     1
102
RTVSPropertyOp44
 70
     1
102
RTVSPropertyOp45
 70
     1
102
RTVSPropertyOp46
 70
     1
102
RTVSPropertyOp47
 70
     1
102
RTVSPropertyOp48
 70
     1
102
RTVSPropertyOp49
 70
     1
102
RTVSPropertyOp50
 70
     1
102
RTVSPropertyOp51
 70
     0
102
RTVSPropertyOp52
 70
     0
102
RTVSPropertyOp53
 70
     1
102
RTVSPropertyOp54
 70
     1
102
RTVSPropertyOp55
 70
     1
102
RTVSPropertyOp56
 70
     1
102
RTVSPropertyOp57
 70
     1
102
RTVSPropertyOp58
 70
     1
102
RTVSPropertyOp59
 70
     1
102
RTVSPropertyOp60
 70
     1
102
RTVSPropertyOp61
 70
     1
102
RTVSPropertyOp62
 70
     1
  0
XRECORD
  5
4C6
102
{ACAD_REACTORS
330
4C5
102
}
330
4C5
100
AcDbXrecord
280
     1
102
RTVSPost2010Prop28
280
     0
102
RTVSPost2010PropOp28
 70
     1
102
RTVSPost2010Prop29
280
     1
102
RTVSPost2010PropOp29
 70
     1
102
RTVSPost2010Prop30
280
     1
102
RTVSPost2010PropOp30
 70
     1
102
RTVSPost2010Prop31
280
     0
102
RTVSPost2010PropOp31
 70
     1
102
RTVSPost2010Prop32
280
     0
102
RTVSPost2010PropOp32
 70
     1
102
RTVSPost2010Prop33
280
     0
102
RTVSPost2010PropOp33
 70
     1
102
RTVSPost2010Prop34
280
     0
102
RTVSPost2010PropOp34
 70
     1
102
RTVSPost2010Prop35
280
     0
102
RTVSPost2010PropOp35
 70
     1
102
RTVSPost2010Prop36
280
     0
102
RTVSPost2010PropOp36
 70
     1
102
RTVSPost2010Prop37
 90
       50
102
RTVSPost2010PropOp37
 70
     1
102
RTVSPost2010Prop38
140
0.0
102
RTVSPost2010PropOp38
 70
     1
102
RTVSPost2010Prop39
140
1.0
102
RTVSPost2010PropOp39
 70
     1
102
RTVSPost2010Prop40
 90
        0
102
RTVSPost2010PropOp40
 70
     1
102
RTVSPost2010Prop41ColorIndex
 90
       18
102
RTVSPost2010Prop41ColorRGB
 90
        0
102
RTVSPost2010PropOp41
 70
     1
102
RTVSPost2010Prop42
 90
       50
102
RTVSPost2010PropOp42
 70
     1
102
RTVSPost2010Prop43
 90
        3
102
RTVSPost2010PropOp43
 70
     1
102
RTVSPost2010Prop44ColorIndex
 90
        5
102
RTVSPost2010Prop44ColorRGB
 90
      255
102
RTVSPost2010PropOp44
 70
     1
102
RTVSPost2010Prop45
280
     0
102
RTVSPost2010PropOp45
 70
     1
102
RTVSPost2010Prop46
 90
       50
102
RTVSPost2010PropOp46
 70
     1
102
RTVSPost2010Prop47
 90
       50
102
RTVSPost2010PropOp47
 70
     1
102
RTVSPost2010Prop48
 90
       50
102
RTVSPost2010PropOp48
 70
     1
102
RTVSPost2010Prop49
280
     0
102
RTVSPost2010PropOp49
 70
     1
102
RTVSPost2010Prop50
 90
       50
102
RTVSPost2010PropOp50
 70
     1
102
RTVSPost2010Prop51ColorIndex
 90
      256
102
RTVSPost2010Prop51ColorRGB
 90
-16777216
102
RTVSPost2010PropOp51
 70
     0
102
RTVSPost2010Prop52
140
1.0
102
RTVSPost2010PropOp52
 70
     0
102
RTVSPost2010Prop53
 90
        2
102
RTVSPost2010PropOp53
 70
     1
102
RTVSPost2010Prop54
  1
strokes_ogs.tif
102
RTVSPost2010PropOp54
 70
     1
102
RTVSPost2010Prop55
280
     0
102
RTVSPost2010PropOp55
 70
     1
102
RTVSPost2010Prop56
140
1.0
102
RTVSPost2010PropOp56
 70
     1
102
RTVSPost2010Prop57
140
1.0
102
RTVSPost2010PropOp57
 70
     1
102
RTVSPropertyOp0
 70
     1
102
RTVSPropertyOp1
 70
     1
102
RTVSPropertyOp2
 70
     1
102
RTVSPropertyOp3
 70
     1
102
RTVSPropertyOp4
 70
     1
102
RTVSPropertyOp5
 70
     1
102
RTVSPropertyOp6
 70
     1
102
RTVSPropertyOp7
 70
     1
102
RTVSPropertyOp8
 70
     1
102
RTVSPropertyOp9
 70
     1
102
RTVSPropertyOp10
 70
     1
102
RTVSPropertyOp11
 70
     1
102
RTVSPropertyOp12
 70
     1
102
RTVSPropertyOp13
 70
     1
102
RTVSPropertyOp14
 70
     1
102
RTVSPropertyOp15
 70
     1
102
RTVSPropertyOp16
 70
     1
102
RTVSPropertyOp17
 70
     1
102
RTVSPropertyOp18
 70
     1
102
RTVSPropertyOp19
 70
     1
102
RTVSPropertyOp20
 70
     1
102
RTVSPropertyOp21
 70
     1
102
RTVSPropertyOp22
 70
     1
102
RTVSPropertyOp23
 70
     1
102
RTVSPropertyOp24
 70
     1
102
RTVSPropertyOp25
 70
     1
102
RTVSPropertyOp26
 70
     1
102
RTVSPropertyOp27
 70
     1
102
RTVSPropertyOp28
 70
     1
102
RTVSPropertyOp29
 70
     1
102
RTVSPropertyOp30
 70
     1
102
RTVSPropertyOp31
 70
     1
102
RTVSPropertyOp32
 70
     1
102
RTVSPropertyOp33
 70
     1
102
RTVSPropertyOp34
 70
     1
102
RTVSPropertyOp35
 70
     1
102
RTVSPropertyOp36
 70
     1
102
RTVSPropertyOp37
 70
     1
102
RTVSPropertyOp38
 70
     1
102
RTVSPropertyOp39
 70
     1
102
RTVSPropertyOp40
 70
     1
102
RTVSPropertyOp41
 70
     1
102
RTVSPropertyOp42
 70
     1
102
RTVSPropertyOp43
 70
     1
102
RTVSPropertyOp44
 70
     1
102
RTVSPropertyOp45
 70
     1
102
RTVSPropertyOp46
 70
     1
102
RTVSPropertyOp47
 70
     1
102
RTVSPropertyOp48
 70
     1
102
RTVSPropertyOp49
 70
     1
102
RTVSPropertyOp50
 70
     1
102
RTVSPropertyOp51
 70
     0
102
RTVSPropertyOp52
 70
     0
102
RTVSPropertyOp53
 70
     1
102
RTVSPropertyOp54
 70
     1
102
RTVSPropertyOp55
 70
     1
102
RTVSPropertyOp56
 70
     1
102
RTVSPropertyOp57
 70
     1
102
RTVSPropertyOp58
 70
     1
102
RTVSPropertyOp59
 70
     1
102
RTVSPropertyOp60
 70
     1
102
RTVSPropertyOp61
 70
     1
102
RTVSPropertyOp62
 70
     1
  0
XRECORD
  5
4B6
102
{ACAD_REACTORS
330
4B5
102
}
330
4B5
100
AcDbXrecord
280
     1
102
RTVSPost2010Prop28
280
     0
102
RTVSPost2010PropOp28
 70
     1
102
RTVSPost2010Prop29
280
     1
102
RTVSPost2010PropOp29
 70
     1
102
RTVSPost2010Prop30
280
     1
102
RTVSPost2010PropOp30
 70
     1
102
RTVSPost2010Prop31
280
     0
102
RTVSPost2010PropOp31
 70
     1
102
RTVSPost2010Prop32
280
     0
102
RTVSPost2010PropOp32
 70
     1
102
RTVSPost2010Prop33
280
     0
102
RTVSPost2010PropOp33
 70
     1
102
RTVSPost2010Prop34
280
     0
102
RTVSPost2010PropOp34
 70
     1
102
RTVSPost2010Prop35
280
     0
102
RTVSPost2010PropOp35
 70
     1
102
RTVSPost2010Prop36
280
     0
102
RTVSPost2010PropOp36
 70
     1
102
RTVSPost2010Prop37
 90
       50
102
RTVSPost2010PropOp37
 70
     1
102
RTVSPost2010Prop38
140
0.0
102
RTVSPost2010PropOp38
 70
     1
102
RTVSPost2010Prop39
140
1.0
102
RTVSPost2010PropOp39
 70
     1
102
RTVSPost2010Prop40
 90
        0
102
RTVSPost2010PropOp40
 70
     1
102
RTVSPost2010Prop41ColorIndex
 90
       18
102
RTVSPost2010Prop41ColorRGB
 90
        0
102
RTVSPost2010PropOp41
 70
     1
102
RTVSPost2010Prop42
 90
       50
102
RTVSPost2010PropOp42
 70
     1
102
RTVSPost2010Prop43
 90
        3
102
RTVSPost2010PropOp43
 70
     1
102
RTVSPost2010Prop44ColorIndex
 90
        5
102
RTVSPost2010Prop44ColorRGB
 90
      255
102
RTVSPost2010PropOp44
 70
     1
102
RTVSPost2010Prop45
280
     0
102
RTVSPost2010PropOp45
 70
     1
102
RTVSPost2010Prop46
 90
       50
102
RTVSPost2010PropOp46
 70
     1
102
RTVSPost2010Prop47
 90
       50
102
RTVSPost2010PropOp47
 70
     1
102
RTVSPost2010Prop48
 90
       50
102
RTVSPost2010PropOp48
 70
     1
102
RTVSPost2010Prop49
280
     0
102
RTVSPost2010PropOp49
 70
     1
102
RTVSPost2010Prop50
 90
       50
102
RTVSPost2010PropOp50
 70
     1
102
RTVSPost2010Prop51ColorIndex
 90
      256
102
RTVSPost2010Prop51ColorRGB
 90
-16777216
102
RTVSPost2010PropOp51
 70
     0
102
RTVSPost2010Prop52
140
1.0
102
RTVSPost2010PropOp52
 70
     0
102
RTVSPost2010Prop53
 90
        2
102
RTVSPost2010PropOp53
 70
     1
102
RTVSPost2010Prop54
  1
strokes_ogs.tif
102
RTVSPost2010PropOp54
 70
     1
102
RTVSPost2010Prop55
280
     0
102
RTVSPost2010PropOp55
 70
     1
102
RTVSPost2010Prop56
140
1.0
102
RTVSPost2010PropOp56
 70
     1
102
RTVSPost2010Prop57
140
1.0
102
RTVSPost2010PropOp57
 70
     1
102
RTVSPropertyOp0
 70
     1
102
RTVSPropertyOp1
 70
     1
102
RTVSPropertyOp2
 70
     1
102
RTVSPropertyOp3
 70
     1
102
RTVSPropertyOp4
 70
     1
102
RTVSPropertyOp5
 70
     1
102
RTVSPropertyOp6
 70
     1
102
RTVSPropertyOp7
 70
     1
102
RTVSPropertyOp8
 70
     1
102
RTVSPropertyOp9
 70
     1
102
RTVSPropertyOp10
 70
     1
102
RTVSPropertyOp11
 70
     1
102
RTVSPropertyOp12
 70
     1
102
RTVSPropertyOp13
 70
     1
102
RTVSPropertyOp14
 70
     1
102
RTVSPropertyOp15
 70
     1
102
RTVSPropertyOp16
 70
     1
102
RTVSPropertyOp17
 70
     1
102
RTVSPropertyOp18
 70
     1
102
RTVSPropertyOp19
 70
     1
102
RTVSPropertyOp20
 70
     1
102
RTVSPropertyOp21
 70
     1
102
RTVSPropertyOp22
 70
     1
102
RTVSPropertyOp23
 70
     1
102
RTVSPropertyOp24
 70
     1
102
RTVSPropertyOp25
 70
     1
102
RTVSPropertyOp26
 70
     1
102
RTVSPropertyOp27
 70
     1
102
RTVSPropertyOp28
 70
     1
102
RTVSPropertyOp29
 70
     1
102
RTVSPropertyOp30
 70
     1
102
RTVSPropertyOp31
 70
     1
102
RTVSPropertyOp32
 70
     1
102
RTVSPropertyOp33
 70
     1
102
RTVSPropertyOp34
 70
     1
102
RTVSPropertyOp35
 70
     1
102
RTVSPropertyOp36
 70
     1
102
RTVSPropertyOp37
 70
     1
102
RTVSPropertyOp38
 70
     1
102
RTVSPropertyOp39
 70
     1
102
RTVSPropertyOp40
 70
     1
102
RTVSPropertyOp41
 70
     1
102
RTVSPropertyOp42
 70
     1
102
RTVSPropertyOp43
 70
     1
102
RTVSPropertyOp44
 70
     1
102
RTVSPropertyOp45
 70
     1
102
RTVSPropertyOp46
 70
     1
102
RTVSPropertyOp47
 70
     1
102
RTVSPropertyOp48
 70
     1
102
RTVSPropertyOp49
 70
     1
102
RTVSPropertyOp50
 70
     1
102
RTVSPropertyOp51
 70
     0
102
RTVSPropertyOp52
 70
     0
102
RTVSPropertyOp53
 70
     1
102
RTVSPropertyOp54
 70
     1
102
RTVSPropertyOp55
 70
     1
102
RTVSPropertyOp56
 70
     1
102
RTVSPropertyOp57
 70
     1
102
RTVSPropertyOp58
 70
     1
102
RTVSPropertyOp59
 70
     1
102
RTVSPropertyOp60
 70
     1
102
RTVSPropertyOp61
 70
     1
102
RTVSPropertyOp62
 70
     1
  0
XRECORD
  5
4A8
102
{ACAD_REACTORS
330
4A7
102
}
330
4A7
100
AcDbXrecord
280
     1
102
RTVSPost2010Prop28
280
     0
102
RTVSPost2010PropOp28
 70
     1
102
RTVSPost2010Prop29
280
     1
102
RTVSPost2010PropOp29
 70
     1
102
RTVSPost2010Prop30
280
     1
102
RTVSPost2010PropOp30
 70
     1
102
RTVSPost2010Prop31
280
     0
102
RTVSPost2010PropOp31
 70
     1
102
RTVSPost2010Prop32
280
     0
102
RTVSPost2010PropOp32
 70
     1
102
RTVSPost2010Prop33
280
     0
102
RTVSPost2010PropOp33
 70
     1
102
RTVSPost2010Prop34
280
     0
102
RTVSPost2010PropOp34
 70
     1
102
RTVSPost2010Prop35
280
     0
102
RTVSPost2010PropOp35
 70
     1
102
RTVSPost2010Prop36
280
     0
102
RTVSPost2010PropOp36
 70
     1
102
RTVSPost2010Prop37
 90
       50
102
RTVSPost2010PropOp37
 70
     1
102
RTVSPost2010Prop38
140
0.0
102
RTVSPost2010PropOp38
 70
     1
102
RTVSPost2010Prop39
140
1.0
102
RTVSPost2010PropOp39
 70
     1
102
RTVSPost2010Prop40
 90
        0
102
RTVSPost2010PropOp40
 70
     1
102
RTVSPost2010Prop41ColorIndex
 90
       18
102
RTVSPost2010Prop41ColorRGB
 90
        0
102
RTVSPost2010PropOp41
 70
     1
102
RTVSPost2010Prop42
 90
       50
102
RTVSPost2010PropOp42
 70
     1
102
RTVSPost2010Prop43
 90
        3
102
RTVSPost2010PropOp43
 70
     1
102
RTVSPost2010Prop44ColorIndex
 90
        5
102
RTVSPost2010Prop44ColorRGB
 90
      255
102
RTVSPost2010PropOp44
 70
     1
102
RTVSPost2010Prop45
280
     0
102
RTVSPost2010PropOp45
 70
     1
102
RTVSPost2010Prop46
 90
       50
102
RTVSPost2010PropOp46
 70
     1
102
RTVSPost2010Prop47
 90
       50
102
RTVSPost2010PropOp47
 70
     1
102
RTVSPost2010Prop48
 90
       50
102
RTVSPost2010PropOp48
 70
     1
102
RTVSPost2010Prop49
280
     0
102
RTVSPost2010PropOp49
 70
     1
102
RTVSPost2010Prop50
 90
       50
102
RTVSPost2010PropOp50
 70
     1
102
RTVSPost2010Prop51ColorIndex
 90
      256
102
RTVSPost2010Prop51ColorRGB
 90
-16777216
102
RTVSPost2010PropOp51
 70
     0
102
RTVSPost2010Prop52
140
1.0
102
RTVSPost2010PropOp52
 70
     0
102
RTVSPost2010Prop53
 90
        2
102
RTVSPost2010PropOp53
 70
     1
102
RTVSPost2010Prop54
  1
strokes_ogs.tif
102
RTVSPost2010PropOp54
 70
     1
102
RTVSPost2010Prop55
280
     0
102
RTVSPost2010PropOp55
 70
     1
102
RTVSPost2010Prop56
140
1.0
102
RTVSPost2010PropOp56
 70
     1
102
RTVSPost2010Prop57
140
1.0
102
RTVSPost2010PropOp57
 70
     1
102
RTVSPropertyOp0
 70
     1
102
RTVSPropertyOp1
 70
     1
102
RTVSPropertyOp2
 70
     1
102
RTVSPropertyOp3
 70
     1
102
RTVSPropertyOp4
 70
     1
102
RTVSPropertyOp5
 70
     1
102
RTVSPropertyOp6
 70
     1
102
RTVSPropertyOp7
 70
     1
102
RTVSPropertyOp8
 70
     1
102
RTVSPropertyOp9
 70
     1
102
RTVSPropertyOp10
 70
     1
102
RTVSPropertyOp11
 70
     1
102
RTVSPropertyOp12
 70
     1
102
RTVSPropertyOp13
 70
     1
102
RTVSPropertyOp14
 70
     1
102
RTVSPropertyOp15
 70
     1
102
RTVSPropertyOp16
 70
     1
102
RTVSPropertyOp17
 70
     1
102
RTVSPropertyOp18
 70
     1
102
RTVSPropertyOp19
 70
     1
102
RTVSPropertyOp20
 70
     1
102
RTVSPropertyOp21
 70
     1
102
RTVSPropertyOp22
 70
     1
102
RTVSPropertyOp23
 70
     1
102
RTVSPropertyOp24
 70
     1
102
RTVSPropertyOp25
 70
     1
102
RTVSPropertyOp26
 70
     1
102
RTVSPropertyOp27
 70
     1
102
RTVSPropertyOp28
 70
     1
102
RTVSPropertyOp29
 70
     1
102
RTVSPropertyOp30
 70
     1
102
RTVSPropertyOp31
 70
     1
102
RTVSPropertyOp32
 70
     1
102
RTVSPropertyOp33
 70
     1
102
RTVSPropertyOp34
 70
     1
102
RTVSPropertyOp35
 70
     1
102
RTVSPropertyOp36
 70
     1
102
RTVSPropertyOp37
 70
     1
102
RTVSPropertyOp38
 70
     1
102
RTVSPropertyOp39
 70
     1
102
RTVSPropertyOp40
 70
     1
102
RTVSPropertyOp41
 70
     1
102
RTVSPropertyOp42
 70
     1
102
RTVSPropertyOp43
 70
     1
102
RTVSPropertyOp44
 70
     1
102
RTVSPropertyOp45
 70
     1
102
RTVSPropertyOp46
 70
     1
102
RTVSPropertyOp47
 70
     1
102
RTVSPropertyOp48
 70
     1
102
RTVSPropertyOp49
 70
     1
102
RTVSPropertyOp50
 70
     1
102
RTVSPropertyOp51
 70
     0
102
RTVSPropertyOp52
 70
     0
102
RTVSPropertyOp53
 70
     1
102
RTVSPropertyOp54
 70
     1
102
RTVSPropertyOp55
 70
     1
102
RTVSPropertyOp56
 70
     1
102
RTVSPropertyOp57
 70
     1
102
RTVSPropertyOp58
 70
     1
102
RTVSPropertyOp59
 70
     1
102
RTVSPropertyOp60
 70
     1
102
RTVSPropertyOp61
 70
     1
102
RTVSPropertyOp62
 70
     1
  0
XRECORD
  5
4C8
102
{ACAD_REACTORS
330
4C7
102
}
330
4C7
100
AcDbXrecord
280
     1
102
RTVSPost2010Prop28
280
     0
102
RTVSPost2010PropOp28
 70
     1
102
RTVSPost2010Prop29
280
     1
102
RTVSPost2010PropOp29
 70
     1
102
RTVSPost2010Prop30
280
     1
102
RTVSPost2010PropOp30
 70
     1
102
RTVSPost2010Prop31
280
     0
102
RTVSPost2010PropOp31
 70
     1
102
RTVSPost2010Prop32
280
     0
102
RTVSPost2010PropOp32
 70
     1
102
RTVSPost2010Prop33
280
     0
102
RTVSPost2010PropOp33
 70
     1
102
RTVSPost2010Prop34
280
     0
102
RTVSPost2010PropOp34
 70
     1
102
RTVSPost2010Prop35
280
     0
102
RTVSPost2010PropOp35
 70
     1
102
RTVSPost2010Prop36
280
     0
102
RTVSPost2010PropOp36
 70
     1
102
RTVSPost2010Prop37
 90
       50
102
RTVSPost2010PropOp37
 70
     1
102
RTVSPost2010Prop38
140
0.0
102
RTVSPost2010PropOp38
 70
     1
102
RTVSPost2010Prop39
140
1.0
102
RTVSPost2010PropOp39
 70
     1
102
RTVSPost2010Prop40
 90
        0
102
RTVSPost2010PropOp40
 70
     1
102
RTVSPost2010Prop41ColorIndex
 90
       18
102
RTVSPost2010Prop41ColorRGB
 90
        0
102
RTVSPost2010PropOp41
 70
     1
102
RTVSPost2010Prop42
 90
       50
102
RTVSPost2010PropOp42
 70
     1
102
RTVSPost2010Prop43
 90
        3
102
RTVSPost2010PropOp43
 70
     1
102
RTVSPost2010Prop44ColorIndex
 90
        5
102
RTVSPost2010Prop44ColorRGB
 90
      255
102
RTVSPost2010PropOp44
 70
     1
102
RTVSPost2010Prop45
280
     0
102
RTVSPost2010PropOp45
 70
     1
102
RTVSPost2010Prop46
 90
       50
102
RTVSPost2010PropOp46
 70
     1
102
RTVSPost2010Prop47
 90
       50
102
RTVSPost2010PropOp47
 70
     1
102
RTVSPost2010Prop48
 90
       50
102
RTVSPost2010PropOp48
 70
     1
102
RTVSPost2010Prop49
280
     0
102
RTVSPost2010PropOp49
 70
     1
102
RTVSPost2010Prop50
 90
       50
102
RTVSPost2010PropOp50
 70
     1
102
RTVSPost2010Prop51ColorIndex
 90
      256
102
RTVSPost2010Prop51ColorRGB
 90
-16777216
102
RTVSPost2010PropOp51
 70
     0
102
RTVSPost2010Prop52
140
1.0
102
RTVSPost2010PropOp52
 70
     0
102
RTVSPost2010Prop53
 90
        2
102
RTVSPost2010PropOp53
 70
     1
102
RTVSPost2010Prop54
  1
strokes_ogs.tif
102
RTVSPost2010PropOp54
 70
     1
102
RTVSPost2010Prop55
280
     0
102
RTVSPost2010PropOp55
 70
     1
102
RTVSPost2010Prop56
140
1.0
102
RTVSPost2010PropOp56
 70
     1
102
RTVSPost2010Prop57
140
1.0
102
RTVSPost2010PropOp57
 70
     1
102
RTVSPropertyOp0
 70
     1
102
RTVSPropertyOp1
 70
     1
102
RTVSPropertyOp2
 70
     1
102
RTVSPropertyOp3
 70
     1
102
RTVSPropertyOp4
 70
     1
102
RTVSPropertyOp5
 70
     1
102
RTVSPropertyOp6
 70
     1
102
RTVSPropertyOp7
 70
     1
102
RTVSPropertyOp8
 70
     1
102
RTVSPropertyOp9
 70
     1
102
RTVSPropertyOp10
 70
     1
102
RTVSPropertyOp11
 70
     1
102
RTVSPropertyOp12
 70
     1
102
RTVSPropertyOp13
 70
     1
102
RTVSPropertyOp14
 70
     1
102
RTVSPropertyOp15
 70
     1
102
RTVSPropertyOp16
 70
     1
102
RTVSPropertyOp17
 70
     1
102
RTVSPropertyOp18
 70
     1
102
RTVSPropertyOp19
 70
     1
102
RTVSPropertyOp20
 70
     1
102
RTVSPropertyOp21
 70
     1
102
RTVSPropertyOp22
 70
     1
102
RTVSPropertyOp23
 70
     1
102
RTVSPropertyOp24
 70
     1
102
RTVSPropertyOp25
 70
     1
102
RTVSPropertyOp26
 70
     1
102
RTVSPropertyOp27
 70
     1
102
RTVSPropertyOp28
 70
     1
102
RTVSPropertyOp29
 70
     1
102
RTVSPropertyOp30
 70
     1
102
RTVSPropertyOp31
 70
     1
102
RTVSPropertyOp32
 70
     1
102
RTVSPropertyOp33
 70
     1
102
RTVSPropertyOp34
 70
     1
102
RTVSPropertyOp35
 70
     1
102
RTVSPropertyOp36
 70
     1
102
RTVSPropertyOp37
 70
     1
102
RTVSPropertyOp38
 70
     1
102
RTVSPropertyOp39
 70
     1
102
RTVSPropertyOp40
 70
     1
102
RTVSPropertyOp41
 70
     1
102
RTVSPropertyOp42
 70
     1
102
RTVSPropertyOp43
 70
     1
102
RTVSPropertyOp44
 70
     1
102
RTVSPropertyOp45
 70
     1
102
RTVSPropertyOp46
 70
     1
102
RTVSPropertyOp47
 70
     1
102
RTVSPropertyOp48
 70
     1
102
RTVSPropertyOp49
 70
     1
102
RTVSPropertyOp50
 70
     1
102
RTVSPropertyOp51
 70
     0
102
RTVSPropertyOp52
 70
     0
102
RTVSPropertyOp53
 70
     1
102
RTVSPropertyOp54
 70
     1
102
RTVSPropertyOp55
 70
     1
102
RTVSPropertyOp56
 70
     1
102
RTVSPropertyOp57
 70
     1
102
RTVSPropertyOp58
 70
     1
102
RTVSPropertyOp59
 70
     1
102
RTVSPropertyOp60
 70
     1
102
RTVSPropertyOp61
 70
     1
102
RTVSPropertyOp62
 70
     1
  0
ENDSEC
  0
EOF
