  0
SECTION
  2
HEADER
  9
$ACADVER
  1
AC1015
  9
$ACADMAINTVER
 70
    20
  9
$DWGCODEPAGE
  3
ANSI_932
  9
$INSBASE
 10
0.0
 20
0.0
 30
0.0
  9
$EXTMIN
 10
-715.2089172875335
 20
-416.6445282192739
 30
0.0
  9
$EXTMAX
 10
3142.026982873865
 20
2229.439372316835
 30
0.0
  9
$LIMMIN
 10
0.0
 20
0.0
  9
$LIMMAX
 10
2500.0
 20
1768.25
  9
$ORTHOMODE
 70
     0
  9
$REGENMODE
 70
     1
  9
$FILLMODE
 70
     1
  9
$QTEXTMODE
 70
     0
  9
$MIRRTEXT
 70
     1
  9
$LTSCALE
 40
0.25
  9
$ATTMODE
 70
     1
  9
$TEXTSIZE
 40
0.2
  9
$TRACEWID
 40
0.05
  9
$TEXTSTYLE
  7
STANDARD
  9
$CLAYER
  8
0
  9
$CELTYPE
  6
CONTINUOUS
  9
$CECOLOR
 62
   256
  9
$CELTSCALE
 40
1.0
  9
$DISPSILH
 70
     0
  9
$DIMSCALE
 40
1.0
  9
$DIMASZ
 40
0.18
  9
$DIMEXO
 40
0.0625
  9
$DIMDLI
 40
0.38
  9
$DIMRND
 40
0.0
  9
$DIMDLE
 40
0.0
  9
$DIMEXE
 40
0.18
  9
$DIMTP
 40
0.0
  9
$DIMTM
 40
0.0
  9
$DIMTXT
 40
0.18
  9
$DIMCEN
 40
0.09
  9
$DIMTSZ
 40
0.0
  9
$DIMTOL
 70
     0
  9
$DIMLIM
 70
     0
  9
$DIMTIH
 70
     1
  9
$DIMTOH
 70
     1
  9
$DIMSE1
 70
     0
  9
$DIMSE2
 70
     0
  9
$DIMTAD
 70
     0
  9
$DIMZIN
 70
     0
  9
$DIMBLK
  1

  9
$DIMASO
 70
     1
  9
$DIMSHO
 70
     1
  9
$DIMPOST
  1

  9
$DIMAPOST
  1

  9
$DIMALT
 70
     0
  9
$DIMALTD
 70
     2
  9
$DIMALTF
 40
25.4
  9
$DIMLFAC
 40
1.0
  9
$DIMTOFL
 70
     0
  9
$DIMTVP
 40
0.0
  9
$DIMTIX
 70
     0
  9
$DIMSOXD
 70
     0
  9
$DIMSAH
 70
     0
  9
$DIMBLK1
  1

  9
$DIMBLK2
  1

  9
$DIMSTYLE
  2
Standard
  9
$DIMCLRD
 70
     0
  9
$DIMCLRE
 70
     0
  9
$DIMCLRT
 70
     0
  9
$DIMTFAC
 40
1.0
  9
$DIMGAP
 40
0.09
  9
$DIMJUST
 70
     0
  9
$DIMSD1
 70
     0
  9
$DIMSD2
 70
     0
  9
$DIMTOLJ
 70
     1
  9
$DIMTZIN
 70
     0
  9
$DIMALTZ
 70
     0
  9
$DIMALTTZ
 70
     0
  9
$DIMUPT
 70
     0
  9
$DIMDEC
 70
     4
  9
$DIMTDEC
 70
     4
  9
$DIMALTU
 70
     2
  9
$DIMALTTD
 70
     2
  9
$DIMTXSTY
  7
STANDARD
  9
$DIMAUNIT
 70
     0
  9
$DIMADEC
 70
     0
  9
$DIMALTRND
 40
0.0
  9
$DIMAZIN
 70
     0
  9
$DIMDSEP
 70
    46
  9
$DIMATFIT
 70
     3
  9
$DIMFRAC
 70
     0
  9
$DIMLDRBLK
  1

  9
$DIMLUNIT
 70
     2
  9
$DIMLWD
 70
    -2
  9
$DIMLWE
 70
    -2
  9
$DIMTMOVE
 70
     2
  9
$LUNITS
 70
     2
  9
$LUPREC
 70
     8
  9
$SKETCHINC
 40
0.1
  9
$FILLETRAD
 40
0.5
  9
$AUNITS
 70
     0
  9
$AUPREC
 70
     0
  9
$MENU
  1
.
  9
$ELEVATION
 40
0.0
  9
$PELEVATION
 40
0.0
  9
$THICKNESS
 40
0.0
  9
$LIMCHECK
 70
     0
  9
$CHAMFERA
 40
0.0
  9
$CHAMFERB
 40
0.0
  9
$CHAMFERC
 40
0.0
  9
$CHAMFERD
 40
0.0
  9
$SKPOLY
 70
     0
  9
$TDCREATE
 40
2459888.844930556
  9
$TDUCREATE
 40
2459888.469935556
  9
$TDUPDATE
 40
2460176.463252315
  9
$TDUUPDATE
 40
2460176.088252315
  9
$TDINDWG
 40
0.0005424421
  9
$TDUSRTIMER
 40
0.0005423264
  9
$USRTIMER
 70
     1
  9
$ANGBASE
 50
0.0
  9
$ANGDIR
 70
     0
  9
$PDMODE
 70
     0
  9
$PDSIZE
 40
0.0
  9
$PLINEWID
 40
0.0
  9
$SPLFRAME
 70
     0
  9
$SPLINETYPE
 70
     6
  9
$SPLINESEGS
 70
     8
  9
$HANDSEED
  5
525
  9
$SURFTAB1
 70
     6
  9
$SURFTAB2
 70
     6
  9
$SURFTYPE
 70
     6
  9
$SURFU
 70
     6
  9
$SURFV
 70
     6
  9
$UCSBASE
  2

  9
$UCSNAME
  2

  9
$UCSORG
 10
0.0
 20
0.0
 30
0.0
  9
$UCSXDIR
 10
1.0
 20
0.0
 30
0.0
  9
$UCSYDIR
 10
0.0
 20
1.0
 30
0.0
  9
$UCSORTHOREF
  2

  9
$UCSORTHOVIEW
 70
     0
  9
$UCSORGTOP
 10
0.0
 20
0.0
 30
0.0
  9
$UCSORGBOTTOM
 10
0.0
 20
0.0
 30
0.0
  9
$UCSORGLEFT
 10
0.0
 20
0.0
 30
0.0
  9
$UCSORGRIGHT
 10
0.0
 20
0.0
 30
0.0
  9
$UCSORGFRONT
 10
0.0
 20
0.0
 30
0.0
  9
$UCSORGBACK
 10
0.0
 20
0.0
 30
0.0
  9
$PUCSBASE
  2

  9
$PUCSNAME
  2

  9
$PUCSORG
 10
0.0
 20
0.0
 30
0.0
  9
$PUCSXDIR
 10
1.0
 20
0.0
 30
0.0
  9
$PUCSYDIR
 10
0.0
 20
1.0
 30
0.0
  9
$PUCSORTHOREF
  2

  9
$PUCSORTHOVIEW
 70
     0
  9
$PUCSORGTOP
 10
0.0
 20
0.0
 30
0.0
  9
$PUCSORGBOTTOM
 10
0.0
 20
0.0
 30
0.0
  9
$PUCSORGLEFT
 10
0.0
 20
0.0
 30
0.0
  9
$PUCSORGRIGHT
 10
0.0
 20
0.0
 30
0.0
  9
$PUCSORGFRONT
 10
0.0
 20
0.0
 30
0.0
  9
$PUCSORGBACK
 10
0.0
 20
0.0
 30
0.0
  9
$USERI1
 70
     0
  9
$USERI2
 70
     0
  9
$USERI3
 70
     0
  9
$USERI4
 70
     0
  9
$USERI5
 70
     0
  9
$USERR1
 40
0.0
  9
$USERR2
 40
0.0
  9
$USERR3
 40
0.0
  9
$USERR4
 40
0.0
  9
$USERR5
 40
0.0
  9
$WORLDVIEW
 70
     1
  9
$SHADEDGE
 70
     3
  9
$SHADEDIF
 70
    70
  9
$TILEMODE
 70
     1
  9
$MAXACTVP
 70
    64
  9
$PINSBASE
 10
0.0
 20
0.0
 30
0.0
  9
$PLIMCHECK
 70
     0
  9
$PEXTMIN
 10
1.000000000000000E+20
 20
1.000000000000000E+20
 30
1.000000000000000E+20
  9
$PEXTMAX
 10
-1.000000000000000E+20
 20
-1.000000000000000E+20
 30
-1.000000000000000E+20
  9
$PLIMMIN
 10
0.0
 20
0.0
  9
$PLIMMAX
 10
12.0
 20
9.0
  9
$UNITMODE
 70
     0
  9
$VISRETAIN
 70
     1
  9
$PLINEGEN
 70
     0
  9
$PSLTSCALE
 70
     1
  9
$TREEDEPTH
 70
  3020
  9
$CMLSTYLE
  2
Standard
  9
$CMLJUST
 70
     0
  9
$CMLSCALE
 40
1.0
  9
$PROXYGRAPHICS
 70
     1
  9
$MEASUREMENT
 70
     0
  9
$CELWEIGHT
370
    -1
  9
$ENDCAPS
280
     0
  9
$JOINSTYLE
280
     0
  9
$LWDISPLAY
290
     0
  9
$INSUNITS
 70
     0
  9
$HYPERLINKBASE
  1

  9
$STYLESHEET
  1

  9
$XEDIT
290
     1
  9
$CEPSNTYPE
380
     3
  9
$CEPSNID
390
11
  9
$PSTYLEMODE
290
     1
  9
$FINGERPRINTGUID
  2
{88CA6ADF-BA32-4355-B65A-CFFB2990C5D4}
  9
$VERSIONGUID
  2
{FAEB1C32-E019-11D5-929B-00C0DF256EC4}
  9
$EXTNAMES
290
     1
  9
$PSVPSCALE
 40
0.0
  9
$OLESTARTUP
290
     0
  0
ENDSEC
  0
SECTION
  2
CLASSES
  0
CLASS
  1
ACDBDICTIONARYWDFLT
  2
AcDbDictionaryWithDefault
  3
ObjectDBX Classes
 90
        0
280
     0
281
     0
  0
CLASS
  1
SCALE
  2
AcDbScale
  3
ObjectDBX Classes
 90
     1153
280
     0
281
     0
  0
CLASS
  1
VISUALSTYLE
  2
AcDbVisualStyle
  3
ObjectDBX Classes
 90
     4095
280
     0
281
     0
  0
CLASS
  1
MATERIAL
  2
AcDbMaterial
  3
ObjectDBX Classes
 90
     1153
280
     0
281
     0
  0
CLASS
  1
TABLESTYLE
  2
AcDbTableStyle
  3
ObjectDBX Classes
 90
     4095
280
     0
281
     0
  0
CLASS
  1
MLEADERSTYLE
  2
AcDbMLeaderStyle
  3
ACDB_MLEADERSTYLE_CLASS
 90
     4095
280
     0
281
     0
  0
CLASS
  1
DICTIONARYVAR
  2
AcDbDictionaryVar
  3
ObjectDBX Classes
 90
        0
280
     0
281
     0
  0
CLASS
  1
CELLSTYLEMAP
  2
AcDbCellStyleMap
  3
ObjectDBX Classes
 90
     1152
280
     0
281
     0
  0
CLASS
  1
ACDBSECTIONVIEWSTYLE
  2
AcDbSectionViewStyle
  3
ObjectDBX Classes
 90
     1025
280
     0
281
     0
  0
CLASS
  1
ACDBDETAILVIEWSTYLE
  2
AcDbDetailViewStyle
  3
ObjectDBX Classes
 90
     1025
280
     0
281
     0
  0
CLASS
  1
ACDBPLACEHOLDER
  2
AcDbPlaceHolder
  3
ObjectDBX Classes
 90
        0
280
     0
281
     0
  0
CLASS
  1
LAYOUT
  2
AcDbLayout
  3
ObjectDBX Classes
 90
        0
280
     0
281
     0
  0
ENDSEC
  0
SECTION
  2
TABLES
  0
TABLE
  2
VPORT
  5
8
330
0
100
AcDbSymbolTable
 70
     1
  0
VPORT
  5
42E
330
8
100
AcDbSymbolTableRecord
100
AcDbViewportTableRecord
  2
*Active
 70
     0
 10
0.0
 20
0.0
 11
1.0
 21
1.0
 12
1213.409032793167
 22
2154.247382668662
 13
0.0
 23
0.0
 14
0.5
 24
0.5
 15
0.5
 25
0.5
 16
0.0
 26
0.0
 36
1.0
 17
0.0
 27
0.0
 37
0.0
 40
5172.068043813482
 41
1.351851851851851
 42
50.0
 43
0.0
 44
0.0
 50
0.0
 51
0.0
 71
     0
 72
   100
 73
     1
 74
     3
 75
     0
 76
     0
 77
     0
 78
     0
281
     0
 65
     1
110
0.0
120
0.0
130
0.0
111
1.0
121
0.0
131
0.0
112
0.0
122
1.0
132
0.0
 79
     0
146
0.0
1001
ACAD_NAV_VCDISPLAY
1070
     3
  0
ENDTAB
  0
TABLE
  2
LTYPE
  5
5
330
0
100
AcDbSymbolTable
 70
    51
  0
LTYPE
  5
14
330
5
100
AcDbSymbolTableRecord
100
AcDbLinetypeTableRecord
  2
ByBlock
 70
     0
  3

 72
    65
 73
     0
 40
0.0
  0
LTYPE
  5
15
330
5
100
AcDbSymbolTableRecord
100
AcDbLinetypeTableRecord
  2
ByLayer
 70
     0
  3

 72
    65
 73
     0
 40
0.0
  0
LTYPE
  5
16
330
5
100
AcDbSymbolTableRecord
100
AcDbLinetypeTableRecord
  2
CONTINUOUS
 70
     0
  3
実線
 72
    65
 73
     0
 40
0.0
  0
LTYPE
  5
21
330
5
100
AcDbSymbolTableRecord
100
AcDbLinetypeTableRecord
  2
DASHED1
 70
     0
  3
--  --  --  --  --  --  --  --  
 72
    65
 73
     2
 40
2.5
 49
1.25
 74
     0
 49
-1.25
 74
     0
  0
LTYPE
  5
22
330
5
100
AcDbSymbolTableRecord
100
AcDbLinetypeTableRecord
  2
DASHED2
 70
     0
  3
----    ----    ----    ----    
 72
    65
 73
     2
 40
5.0
 49
2.5
 74
     0
 49
-2.5
 74
     0
  0
LTYPE
  5
23
330
5
100
AcDbSymbolTableRecord
100
AcDbLinetypeTableRecord
  2
DASHED3
 70
     0
  3
------  ------  ------  ------  
 72
    65
 73
     2
 40
5.0
 49
3.75
 74
     0
 49
-1.25
 74
     0
  0
LTYPE
  5
24
330
5
100
AcDbSymbolTableRecord
100
AcDbLinetypeTableRecord
  2
CENTER1
 70
     0
  3
----- - ----- - ----- - ----- - 
 72
    65
 73
     4
 40
10.0
 49
6.25
 74
     0
 49
-1.25
 74
     0
 49
1.25
 74
     0
 49
-1.25
 74
     0
  0
LTYPE
  5
25
330
5
100
AcDbSymbolTableRecord
100
AcDbLinetypeTableRecord
  2
CENTER2
 70
     0
  3
----------  --  ----------  --  
 72
    65
 73
     4
 40
20.0
 49
12.5
 74
     0
 49
-2.5
 74
     0
 49
2.5
 74
     0
 49
-2.5
 74
     0
  0
LTYPE
  5
26
330
5
100
AcDbSymbolTableRecord
100
AcDbLinetypeTableRecord
  2
PHANTOM1
 70
     0
  3
--- - - --- - - --- - - --- - - 
 72
    65
 73
     6
 40
9.5
 49
3.25
 74
     0
 49
-1.25
 74
     0
 49
1.25
 74
     0
 49
-1.25
 74
     0
 49
1.25
 74
     0
 49
-1.25
 74
     0
  0
LTYPE
  5
27
330
5
100
AcDbSymbolTableRecord
100
AcDbLinetypeTableRecord
  2
PHANTOM2
 70
     0
  3
--------  -  -  --------  -  -  
 72
    65
 73
     6
 40
20.0
 49
10.0
 74
     0
 49
-2.5
 74
     0
 49
1.25
 74
     0
 49
-2.5
 74
     0
 49
1.25
 74
     0
 49
-2.5
 74
     0
  0
LTYPE
  5
28
330
5
100
AcDbSymbolTableRecord
100
AcDbLinetypeTableRecord
  2
DOT
 70
     0
  3
-   -   -   -   -   -   -   -   
 72
    65
 73
     2
 40
2.5
 49
0.625
 74
     0
 49
-1.875
 74
     0
  0
LTYPE
  5
29
330
5
100
AcDbSymbolTableRecord
100
AcDbLinetypeTableRecord
  2
DUMMY
 70
     0
  3
ダミー
 72
    65
 73
     0
 40
0.0
  0
LTYPE
  5
2A
330
5
100
AcDbSymbolTableRecord
100
AcDbLinetypeTableRecord
  2
RAND1
 70
     0
  3
ランダム線1
 72
    65
 73
     4
 40
10.0
 49
1.0
 74
     0
 49
-2.0
 74
     0
 49
3.0
 74
     0
 49
-4.0
 74
     0
  0
LTYPE
  5
2B
330
5
100
AcDbSymbolTableRecord
100
AcDbLinetypeTableRecord
  2
RAND2
 70
     0
  3
ランダム線2
 72
    65
 73
     4
 40
14.0
 49
2.0
 74
     0
 49
-3.0
 74
     0
 49
4.0
 74
     0
 49
-5.0
 74
     0
  0
LTYPE
  5
2C
330
5
100
AcDbSymbolTableRecord
100
AcDbLinetypeTableRecord
  2
RAND3
 70
     0
  3
ランダム線3
 72
    65
 73
     4
 40
18.0
 49
3.0
 74
     0
 49
-4.0
 74
     0
 49
5.0
 74
     0
 49
-6.0
 74
     0
  0
LTYPE
  5
2D
330
5
100
AcDbSymbolTableRecord
100
AcDbLinetypeTableRecord
  2
RAND4
 70
     0
  3
ランダム線4
 72
    65
 73
     4
 40
22.0
 49
4.0
 74
     0
 49
-5.0
 74
     0
 49
6.0
 74
     0
 49
-7.0
 74
     0
  0
LTYPE
  5
2E
330
5
100
AcDbSymbolTableRecord
100
AcDbLinetypeTableRecord
  2
RAND5
 70
     0
  3
ランダム線5
 72
    65
 73
     4
 40
26.0
 49
5.0
 74
     0
 49
-6.0
 74
     0
 49
7.0
 74
     0
 49
-8.0
 74
     0
  0
LTYPE
  5
2F
330
5
100
AcDbSymbolTableRecord
100
AcDbLinetypeTableRecord
  2
LONG1
 70
     0
  3
----------  --  ----------  --  
 72
    65
 73
     4
 40
40.0
 49
32.5
 74
     0
 49
-2.5
 74
     0
 49
2.5
 74
     0
 49
-2.5
 74
     0
  0
LTYPE
  5
30
330
5
100
AcDbSymbolTableRecord
100
AcDbLinetypeTableRecord
  2
LONG2
 70
     0
  3
--------  -  -  --------  -  -  
 72
    65
 73
     6
 40
40.0
 49
30.0
 74
     0
 49
-2.5
 74
     0
 49
1.25
 74
     0
 49
-2.5
 74
     0
 49
1.25
 74
     0
 49
-2.5
 74
     0
  0
LTYPE
  5
31
330
5
100
AcDbSymbolTableRecord
100
AcDbLinetypeTableRecord
  2
LONG3
 70
     0
  3
+++++++++++++++..+++++++++++++++
 72
    65
 73
     2
 40
40.0
 49
37.5
 74
     0
 49
-2.5
 74
     0
  0
LTYPE
  5
32
330
5
100
AcDbSymbolTableRecord
100
AcDbLinetypeTableRecord
  2
LONG4
 70
     0
  3
+++++++++++++++..+++++++++++++++
 72
    65
 73
     2
 40
80.0
 49
75.0
 74
     0
 49
-5.0
 74
     0
  0
LTYPE
  5
33
330
5
100
AcDbSymbolTableRecord
100
AcDbLinetypeTableRecord
  2
LONG5
 70
     0
  3
----------  --  ----------  --  
 72
    65
 73
     4
 40
60.0
 49
37.5
 74
     0
 49
-7.5
 74
     0
 49
7.5
 74
     0
 49
-7.5
 74
     0
  0
LTYPE
  5
34
330
5
100
AcDbSymbolTableRecord
100
AcDbLinetypeTableRecord
  2
dashed
 70
     0
  3
-------   -------------   ------
 72
    65
 73
     2
 40
7.5
 49
6.0
 74
     0
 49
-1.5
 74
     0
  0
LTYPE
  5
35
330
5
100
AcDbSymbolTableRecord
100
AcDbLinetypeTableRecord
  2
dashed_spaced
 70
     0
  3
----        --------        ----
 72
    65
 73
     2
 40
12.0
 49
6.0
 74
     0
 49
-6.0
 74
     0
  0
LTYPE
  5
36
330
5
100
AcDbSymbolTableRecord
100
AcDbLinetypeTableRecord
  2
long_dashed_dotted
 70
     0
  3
------------- --- --------------
 72
    65
 73
     4
 40
15.25
 49
12.0
 74
     0
 49
-1.5
 74
     0
 49
0.25
 74
     0
 49
-1.5
 74
     0
  0
LTYPE
  5
37
330
5
100
AcDbSymbolTableRecord
100
AcDbLinetypeTableRecord
  2
long_dashed_double-dotted
 70
     0
  3
----------- --- --- ------------
 72
    65
 73
     6
 40
17.0
 49
12.0
 74
     0
 49
-1.5
 74
     0
 49
0.25
 74
     0
 49
-1.5
 74
     0
 49
0.25
 74
     0
 49
-1.5
 74
     0
  0
LTYPE
  5
38
330
5
100
AcDbSymbolTableRecord
100
AcDbLinetypeTableRecord
  2
long_dashed_triplicate-dotted
 70
     0
  3
--------- --- --- --- ----------
 72
    65
 73
     8
 40
18.75
 49
12.0
 74
     0
 49
-1.5
 74
     0
 49
0.25
 74
     0
 49
-1.5
 74
     0
 49
0.25
 74
     0
 49
-1.5
 74
     0
 49
0.25
 74
     0
 49
-1.5
 74
     0
  0
LTYPE
  5
39
330
5
100
AcDbSymbolTableRecord
100
AcDbLinetypeTableRecord
  2
dotted
 70
     0
  3
   -       -       -       -    
 72
    65
 73
     2
 40
1.75
 49
0.25
 74
     0
 49
-1.5
 74
     0
  0
LTYPE
  5
3A
330
5
100
AcDbSymbolTableRecord
100
AcDbLinetypeTableRecord
  2
chain
 70
     0
  3
-------------- -- --------------
 72
    65
 73
     4
 40
18.5
 49
12.0
 74
     0
 49
-1.5
 74
     0
 49
3.5
 74
     0
 49
-1.5
 74
     0
  0
LTYPE
  5
3B
330
5
100
AcDbSymbolTableRecord
100
AcDbLinetypeTableRecord
  2
chain_double_dash
 70
     0
  3
------------ -- -- -------------
 72
    65
 73
     6
 40
23.5
 49
12.0
 74
     0
 49
-1.5
 74
     0
 49
3.5
 74
     0
 49
-1.5
 74
     0
 49
3.5
 74
     0
 49
-1.5
 74
     0
  0
LTYPE
  5
3C
330
5
100
AcDbSymbolTableRecord
100
AcDbLinetypeTableRecord
  2
dashed_dotted
 70
     0
  3
-----------     -     ----------
 72
    65
 73
     4
 40
9.25
 49
6.0
 74
     0
 49
-1.5
 74
     0
 49
0.25
 74
     0
 49
-1.5
 74
     0
  0
LTYPE
  5
3D
330
5
100
AcDbSymbolTableRecord
100
AcDbLinetypeTableRecord
  2
double-dashed_dotted
 70
     0
  3
------   -----------   -   -----
 72
    65
 73
     6
 40
16.75
 49
6.0
 74
     0
 49
-1.5
 74
     0
 49
6.0
 74
     0
 49
-1.5
 74
     0
 49
0.25
 74
     0
 49
-1.5
 74
     0
  0
LTYPE
  5
3E
330
5
100
AcDbSymbolTableRecord
100
AcDbLinetypeTableRecord
  2
dashed_double-dotted
 70
     0
  3
---------    -    -    ---------
 72
    65
 73
     6
 40
11.0
 49
6.0
 74
     0
 49
-1.5
 74
     0
 49
0.25
 74
     0
 49
-1.5
 74
     0
 49
0.25
 74
     0
 49
-1.5
 74
     0
  0
LTYPE
  5
3F
330
5
100
AcDbSymbolTableRecord
100
AcDbLinetypeTableRecord
  2
double-dashed_double-dotted
 70
     0
  3
-----   ---------   -   -   ----
 72
    65
 73
     8
 40
18.5
 49
6.0
 74
     0
 49
-1.5
 74
     0
 49
6.0
 74
     0
 49
-1.5
 74
     0
 49
0.25
 74
     0
 49
-1.5
 74
     0
 49
0.25
 74
     0
 49
-1.5
 74
     0
  0
LTYPE
  5
40
330
5
100
AcDbSymbolTableRecord
100
AcDbLinetypeTableRecord
  2
dashed_triplicate-dotted
 70
     0
  3
-------    -    -    -    ------
 72
    65
 73
     8
 40
12.75
 49
6.0
 74
     0
 49
-1.5
 74
     0
 49
0.25
 74
     0
 49
-1.5
 74
     0
 49
0.25
 74
     0
 49
-1.5
 74
     0
 49
0.25
 74
     0
 49
-1.5
 74
     0
  0
LTYPE
  5
41
330
5
100
AcDbSymbolTableRecord
100
AcDbLinetypeTableRecord
  2
double-dashed_triplicate-dotted
 70
     0
  3
-----  ---------  -  -  -  -----
 72
    65
 73
    10
 40
20.25
 49
6.0
 74
     0
 49
-1.5
 74
     0
 49
6.0
 74
     0
 49
-1.5
 74
     0
 49
0.25
 74
     0
 49
-1.5
 74
     0
 49
0.25
 74
     0
 49
-1.5
 74
     0
 49
0.25
 74
     0
 49
-1.5
 74
     0
  0
LTYPE
  5
42
330
5
100
AcDbSymbolTableRecord
100
AcDbLinetypeTableRecord
  2
undefined
 70
     0
  3
--------------------------------
 72
    65
 73
     0
 40
0.0
  0
LTYPE
  5
43
330
5
100
AcDbSymbolTableRecord
100
AcDbLinetypeTableRecord
  2
AI-Linetype-4
 70
     0
  3
----        --------        ----
 72
    65
 73
     2
 40
1.000002201219374
 49
0.5000011006096871
 74
     0
 49
-0.5000011006096871
 74
     0
  0
LTYPE
  5
44
330
5
100
AcDbSymbolTableRecord
100
AcDbLinetypeTableRecord
  2
繝_繧_繝_繧_繧_繝__24
 70
     0
  3
------     -----------     -----
 72
    65
 73
     2
 40
0.5905511811023623
 49
0.3937007874015748
 74
     0
 49
-0.1968503937007874
 74
     0
  0
LTYPE
  5
45
330
5
100
AcDbSymbolTableRecord
100
AcDbLinetypeTableRecord
  2
繝_繧_繝_繧_繧_繝__23
 70
     0
  3
----        --------        ----
 72
    65
 73
     2
 40
0.8332799999999998
 49
0.4165599999999998
 74
     0
 49
-0.41672
 74
     0
  0
LTYPE
  5
46
330
5
100
AcDbSymbolTableRecord
100
AcDbLinetypeTableRecord
  2
繝_繧_繝_繧_繧_繝__22
 70
     0
  3
----     -----     -----     ---
 72
    65
 73
     6
 40
1.450582677165354
 49
0.241763779527559
 74
     0
 49
-0.241763779527559
 74
     0
 49
0.241763779527559
 74
     0
 49
-0.241763779527559
 74
     0
 49
0.241763779527559
 74
     0
 49
-0.241763779527559
 74
     0
  0
LTYPE
  5
47
330
5
100
AcDbSymbolTableRecord
100
AcDbLinetypeTableRecord
  2
繝_繧_繝_繧_繧_繝__21
 70
     0
  3
----     -----     -----     ---
 72
    65
 73
     6
 40
1.308833858267716
 49
0.2181389763779527
 74
     0
 49
-0.2181389763779527
 74
     0
 49
0.2181389763779527
 74
     0
 49
-0.2181389763779527
 74
     0
 49
0.2181389763779527
 74
     0
 49
-0.2181389763779529
 74
     0
  0
LTYPE
  5
48
330
5
100
AcDbSymbolTableRecord
100
AcDbLinetypeTableRecord
  2
繝_繧_繝_繧_繧_繝__19
 70
     0
  3
-----------  --  --  -----------
 72
    65
 73
     6
 40
4.166667716535432
 49
2.777777952755906
 74
     0
 49
-0.2777779527559052
 74
     0
 49
0.2777779527559052
 74
     0
 49
-0.2777779527559052
 74
     0
 49
0.2777779527559052
 74
     0
 49
-0.2777779527559052
 74
     0
  0
LTYPE
  5
49
330
5
100
AcDbSymbolTableRecord
100
AcDbLinetypeTableRecord
  2
繝_繧_繝_繧_繧_繝__18
 70
     0
  3
-----      ----------      -----
 72
    65
 73
     2
 40
1.527777777777777
 49
0.9722222222222221
 74
     0
 49
-0.5555555555555554
 74
     0
  0
LTYPE
  5
4A
330
5
100
AcDbSymbolTableRecord
100
AcDbLinetypeTableRecord
  2
繝_繧_繝_繧_繧_繝__17
 70
     0
  3
----------    ----    ----------
 72
    65
 73
     4
 40
4.305555555555555
 49
2.638888888888888
 74
     0
 49
-0.5555555555555553
 74
     0
 49
0.5555555555555558
 74
     0
 49
-0.5555555555555558
 74
     0
  0
LTYPE
  5
4B
330
5
100
AcDbSymbolTableRecord
100
AcDbLinetypeTableRecord
  2
繝_繧_繝_繧_繧_繝__16
 70
     0
  3
-------- --------------- -------
 72
    65
 73
     2
 40
40.01
 49
40.0
 74
     0
 49
-0.01
 74
     0
  0
LTYPE
  5
4C
330
5
100
AcDbSymbolTableRecord
100
AcDbLinetypeTableRecord
  2
繝_繧_繝_繧_繧_繝__15
 70
     0
  3
--------    --    --    --------
 72
    65
 73
     6
 40
0.0644061102362205
 49
0.0322030551181102
 74
     0
 49
-0.0080508346456693
 74
     0
 49
0.0040252755905512
 74
     0
 49
-0.0080508346456693
 74
     0
 49
0.0040252755905512
 74
     0
 49
-0.0080508346456693
 74
     0
  0
LTYPE
  5
4D
330
5
100
AcDbSymbolTableRecord
100
AcDbLinetypeTableRecord
  2
繝_繧_繝_繧_繧_繝__14
 70
     0
  3
-----------   -   -   ----------
 72
    65
 73
     6
 40
0.0798610944881885
 49
0.0520833307086613
 74
     0
 49
-0.0069444409448818
 74
     0
 49
0.0034722204724409
 74
     0
 49
-0.0069444409448818
 74
     0
 49
0.0034722204724409
 74
     0
 49
-0.0069444409448818
 74
     0
  0
LTYPE
  5
4E
330
5
100
AcDbSymbolTableRecord
100
AcDbLinetypeTableRecord
  2
繝_繧_繝_繧_繧_繝__13
 70
     0
  3
-----------   -   -   ----------
 72
    65
 73
     6
 40
0.0638889055118109
 49
0.0416666692913386
 74
     0
 49
-0.0055555590551181
 74
     0
 49
0.002777779527559
 74
     0
 49
-0.0055555590551181
 74
     0
 49
0.002777779527559
 74
     0
 49
-0.0055555590551181
 74
     0
  0
LTYPE
  5
4F
330
5
100
AcDbSymbolTableRecord
100
AcDbLinetypeTableRecord
  2
繝_繧_繝_繧_繧_繝__12
 70
     0
  3
-----------  --  --  -----------
 72
    65
 73
     6
 40
0.0416666771653541
 49
0.0277777795275591
 74
     0
 49
-0.002777779527559
 74
     0
 49
0.002777779527559
 74
     0
 49
-0.002777779527559
 74
     0
 49
0.002777779527559
 74
     0
 49
-0.002777779527559
 74
     0
  0
LTYPE
  5
50
330
5
100
AcDbSymbolTableRecord
100
AcDbLinetypeTableRecord
  2
繝_繧_繝_繧_繧_繝__11
 70
     0
  3
--            ----            --
 72
    65
 73
     2
 40
0.137795275590551
 49
0.0344488188976376
 74
     0
 49
-0.1033464566929134
 74
     0
  0
LTYPE
  5
51
330
5
100
AcDbSymbolTableRecord
100
AcDbLinetypeTableRecord
  2
繝_繧_繝_繧_繧_繝__10
 70
     0
  3
----------- ---- ---  ----------
 72
    65
 73
     6
 40
11.875
 49
7.5
 74
     0
 49
-0.5555699999999995
 74
     0
 49
1.388860000000001
 74
     0
 49
-0.5555699999999995
 74
     0
 49
1.25
 74
     0
 49
-0.625
 74
     0
  0
LTYPE
  5
52
330
5
100
AcDbSymbolTableRecord
100
AcDbLinetypeTableRecord
  2
繝_繧_繝_繧_繧_繝__9
 70
     0
  3
-----------   -----   ----------
 72
    65
 73
     4
 40
5.138888888888888
 49
3.333333333333333
 74
     0
 49
-0.5555555555555558
 74
     0
 49
0.8333333333333332
 74
     0
 49
-0.4166666666666663
 74
     0
  0
ENDTAB
  0
TABLE
  2
LAYER
  5
2
330
0
100
AcDbSymbolTable
 70
    13
  0
LAYER
  5
10
330
2
100
AcDbSymbolTableRecord
100
AcDbLayerTableRecord
  2
0
 70
     0
 62
     7
  6
CONTINUOUS
370
    -3
390
11
  0
LAYER
  5
55
330
2
100
AcDbSymbolTableRecord
100
AcDbLayerTableRecord
  2
_0-0_
 70
     0
 62
     7
  6
CONTINUOUS
370
    -3
390
F
  0
LAYER
  5
56
330
2
100
AcDbSymbolTableRecord
100
AcDbLayerTableRecord
  2
_0-1_荳_闊_
 70
     0
 62
     7
  6
CONTINUOUS
370
    -3
390
F
  0
LAYER
  5
57
330
2
100
AcDbSymbolTableRecord
100
AcDbLayerTableRecord
  2
_0-2_蟇_豕__
 70
     0
 62
     7
  6
CONTINUOUS
370
    -3
390
F
  0
LAYER
  5
58
330
2
100
AcDbSymbolTableRecord
100
AcDbLayerTableRecord
  2
_0-8__0-2_蟇_豕__ts
 70
     0
 62
     7
  6
CONTINUOUS
370
    -3
390
F
  0
LAYER
  5
59
330
2
100
AcDbSymbolTableRecord
100
AcDbLayerTableRecord
  2
_0-9__0-2_蟇_豕___2-1
 70
     0
 62
     7
  6
CONTINUOUS
370
    -3
390
F
  0
LAYER
  5
5A
330
2
100
AcDbSymbolTableRecord
100
AcDbLayerTableRecord
  2
_0-a__0-2_蟇_豕___6-1
 70
     0
 62
     7
  6
CONTINUOUS
370
    -3
390
F
  0
LAYER
  5
5B
330
2
100
AcDbSymbolTableRecord
100
AcDbLayerTableRecord
  2
_0-b__0-2_蟇_豕___7-1
 70
     0
 62
     7
  6
CONTINUOUS
370
    -3
390
F
  0
LAYER
  5
5C
330
2
100
AcDbSymbolTableRecord
100
AcDbLayerTableRecord
  2
ADD_LINE
 70
     0
 62
     7
  6
CONTINUOUS
370
    -3
390
F
  0
LAYER
  5
42F
330
2
100
AcDbSymbolTableRecord
100
AcDbLayerTableRecord
  2
_1-0__0-7__0-3_Defpoints
 70
     0
 62
     7
  6
CONTINUOUS
370
    -3
390
F
  0
LAYER
  5
430
330
2
100
AcDbSymbolTableRecord
100
AcDbLayerTableRecord
  2
_0-e__0-5__0-2_蟇_豕__3__100__AcDbSymbolTable___70_______1____0__STYLE____5__10__100__AcDbSymbolTableRecord_
 70
     0
 62
     7
  6
CONTINUOUS
370
    -3
390
F
  0
LAYER
  5
431
330
2
100
AcDbSymbolTableRecord
100
AcDbLayerTableRecord
  2
_0-f__0-6__0-2_蟇_豕__0___50__0_0___71_______0___42__1_0____3__txt____4__bigfont_shx____0__ENDTAB____0__EOF__
 70
     0
 62
     7
  6
CONTINUOUS
370
    -3
390
F
  0
LAYER
  5
432
330
2
100
AcDbSymbolTableRecord
100
AcDbLayerTableRecord
  2
_0-d__0-4__0-0_0
 70
     0
 62
     7
  6
CONTINUOUS
370
    -3
390
F
  0
ENDTAB
  0
TABLE
  2
STYLE
  5
3
330
0
100
AcDbSymbolTable
 70
     2
  0
STYLE
  5
12
330
3
100
AcDbSymbolTableRecord
100
AcDbTextStyleTableRecord
  2
STANDARD
 70
     0
 40
0.0
 41
1.0
 50
0.0
 71
     0
 42
0.2
  3
txt
  4
bigfont.shx
  0
STYLE
  5
54
330
3
100
AcDbSymbolTableRecord
100
AcDbTextStyleTableRecord
  2
TATEGAKI
 70
     4
 40
0.0
 41
1.0
 50
0.0
 71
     0
 42
1.0
  3
txt
  4
bigfont.shx
  0
ENDTAB
  0
TABLE
  2
VIEW
  5
6
330
0
100
AcDbSymbolTable
 70
     0
  0
ENDTAB
  0
TABLE
  2
UCS
  5
7
330
0
100
AcDbSymbolTable
 70
     0
  0
ENDTAB
  0
TABLE
  2
APPID
  5
9
330
0
100
AcDbSymbolTable
 70
     4
  0
APPID
  5
13
330
9
100
AcDbSymbolTableRecord
100
AcDbRegAppTableRecord
  2
ACAD
 70
     0
  0
APPID
  5
46A
330
9
100
AcDbSymbolTableRecord
100
AcDbRegAppTableRecord
  2
ACAD_MLEADERVER
 70
     0
  0
APPID
  5
46B
330
9
100
AcDbSymbolTableRecord
100
AcDbRegAppTableRecord
  2
ACAD_PSEXT
 70
     0
  0
APPID
  5
4DF
330
9
100
AcDbSymbolTableRecord
100
AcDbRegAppTableRecord
  2
ACAD_NAV_VCDISPLAY
 70
     0
  0
ENDTAB
  0
TABLE
  2
DIMSTYLE
  5
A
330
0
100
AcDbSymbolTable
 70
     1
100
AcDbDimStyleTable
 71
     0
  0
DIMSTYLE
105
5D
330
A
100
AcDbSymbolTableRecord
100
AcDbDimStyleTableRecord
  2
Standard
 70
     0
340
12
  0
ENDTAB
  0
TABLE
  2
BLOCK_RECORD
  5
1
330
0
100
AcDbSymbolTable
 70
    42
  0
BLOCK_RECORD
  5
1D
330
1
100
AcDbSymbolTableRecord
100
AcDbBlockTableRecord
  2
*Model_Space
340
1E
  0
BLOCK_RECORD
  5
1B
330
1
100
AcDbSymbolTableRecord
100
AcDbBlockTableRecord
  2
*Paper_Space
340
1C
  0
BLOCK_RECORD
  5
5F
330
1
100
AcDbSymbolTableRecord
100
AcDbBlockTableRecord
  2
-000-VW_EMPTYBALL
340
0
102
{BLKREFS
331
41E
331
41F
331
429
331
42A
331
81
331
82
331
8D
331
8E
331
99
331
9A
331
A5
331
A6
331
B1
331
B2
331
BD
331
BE
331
C9
331
CA
331
D5
331
D6
331
E3
331
E4
331
EF
331
1E0
331
1E1
331
168
331
173
331
174
331
17F
331
180
331
18B
331
18C
331
197
331
198
331
1A3
331
1A4
331
1AF
331
1B0
331
1BB
331
1BC
331
F0
331
FB
331
FC
331
107
331
108
331
137
331
138
331
143
331
144
331
14F
331
150
331
15B
331
15C
331
167
331
259
331
25A
331
265
331
266
331
271
331
272
331
27D
331
27E
331
28B
331
28C
331
297
331
298
331
2A3
331
2A4
331
2B0
331
2B1
331
2BE
331
2BF
331
69
331
6A
331
75
331
76
102
}
  0
BLOCK_RECORD
  5
63
330
1
100
AcDbSymbolTableRecord
100
AcDbBlockTableRecord
  2
-001-_D2
340
0
102
{BLKREFS
331
2DE
102
}
  0
BLOCK_RECORD
  5
71
330
1
100
AcDbSymbolTableRecord
100
AcDbBlockTableRecord
  2
-002-_D3
340
0
102
{BLKREFS
331
2E3
102
}
  0
BLOCK_RECORD
  5
7D
330
1
100
AcDbSymbolTableRecord
100
AcDbBlockTableRecord
  2
-003-_D4
340
0
102
{BLKREFS
331
2E4
102
}
  0
BLOCK_RECORD
  5
89
330
1
100
AcDbSymbolTableRecord
100
AcDbBlockTableRecord
  2
-004-_D5
340
0
102
{BLKREFS
331
2E5
102
}
  0
BLOCK_RECORD
  5
95
330
1
100
AcDbSymbolTableRecord
100
AcDbBlockTableRecord
  2
-005-_D6
340
0
102
{BLKREFS
331
2E6
102
}
  0
BLOCK_RECORD
  5
A1
330
1
100
AcDbSymbolTableRecord
100
AcDbBlockTableRecord
  2
-006-_D7
340
0
102
{BLKREFS
331
2E7
102
}
  0
BLOCK_RECORD
  5
AD
330
1
100
AcDbSymbolTableRecord
100
AcDbBlockTableRecord
  2
-007-_D8
340
0
102
{BLKREFS
331
2E8
102
}
  0
BLOCK_RECORD
  5
B9
330
1
100
AcDbSymbolTableRecord
100
AcDbBlockTableRecord
  2
-008-_D9
340
0
102
{BLKREFS
331
2F3
102
}
  0
BLOCK_RECORD
  5
C5
330
1
100
AcDbSymbolTableRecord
100
AcDbBlockTableRecord
  2
-009-_D10
340
0
102
{BLKREFS
331
2F4
102
}
  0
BLOCK_RECORD
  5
D1
330
1
100
AcDbSymbolTableRecord
100
AcDbBlockTableRecord
  2
-010-_D11
340
0
102
{BLKREFS
331
2F5
102
}
  0
BLOCK_RECORD
  5
DD
330
1
100
AcDbSymbolTableRecord
100
AcDbBlockTableRecord
  2
-011-_D12
340
0
102
{BLKREFS
331
2F6
102
}
  0
BLOCK_RECORD
  5
EB
330
1
100
AcDbSymbolTableRecord
100
AcDbBlockTableRecord
  2
-012-_D13
340
0
102
{BLKREFS
331
2F7
102
}
  0
BLOCK_RECORD
  5
F7
330
1
100
AcDbSymbolTableRecord
100
AcDbBlockTableRecord
  2
-013-_D14
340
0
102
{BLKREFS
331
2F8
102
}
  0
BLOCK_RECORD
  5
103
330
1
100
AcDbSymbolTableRecord
100
AcDbBlockTableRecord
  2
-014-_D15
340
0
102
{BLKREFS
331
2FF
102
}
  0
BLOCK_RECORD
  5
10F
330
1
100
AcDbSymbolTableRecord
100
AcDbBlockTableRecord
  2
-015-繧_繝_繝_繝__2-1
340
0
102
{BLKREFS
331
30A
102
}
  0
BLOCK_RECORD
  5
133
330
1
100
AcDbSymbolTableRecord
100
AcDbBlockTableRecord
  2
-016-_D17
340
0
102
{BLKREFS
331
30B
102
}
  0
BLOCK_RECORD
  5
13F
330
1
100
AcDbSymbolTableRecord
100
AcDbBlockTableRecord
  2
-017-_D18
340
0
102
{BLKREFS
331
341
102
}
  0
BLOCK_RECORD
  5
14B
330
1
100
AcDbSymbolTableRecord
100
AcDbBlockTableRecord
  2
-018-_D19
340
0
102
{BLKREFS
331
342
102
}
  0
BLOCK_RECORD
  5
157
330
1
100
AcDbSymbolTableRecord
100
AcDbBlockTableRecord
  2
-019-_D20
340
0
102
{BLKREFS
331
343
102
}
  0
BLOCK_RECORD
  5
163
330
1
100
AcDbSymbolTableRecord
100
AcDbBlockTableRecord
  2
-020-_D21
340
0
102
{BLKREFS
331
354
102
}
  0
BLOCK_RECORD
  5
16F
330
1
100
AcDbSymbolTableRecord
100
AcDbBlockTableRecord
  2
-021-_D22
340
0
102
{BLKREFS
331
35A
102
}
  0
BLOCK_RECORD
  5
17B
330
1
100
AcDbSymbolTableRecord
100
AcDbBlockTableRecord
  2
-022-_D23
340
0
102
{BLKREFS
331
35B
102
}
  0
BLOCK_RECORD
  5
187
330
1
100
AcDbSymbolTableRecord
100
AcDbBlockTableRecord
  2
-023-_D24
340
0
102
{BLKREFS
331
35C
102
}
  0
BLOCK_RECORD
  5
193
330
1
100
AcDbSymbolTableRecord
100
AcDbBlockTableRecord
  2
-024-_D25
340
0
102
{BLKREFS
331
35D
102
}
  0
BLOCK_RECORD
  5
19F
330
1
100
AcDbSymbolTableRecord
100
AcDbBlockTableRecord
  2
-025-_D26
340
0
102
{BLKREFS
331
35E
102
}
  0
BLOCK_RECORD
  5
1AB
330
1
100
AcDbSymbolTableRecord
100
AcDbBlockTableRecord
  2
-026-_D27
340
0
102
{BLKREFS
331
35F
102
}
  0
BLOCK_RECORD
  5
1B7
330
1
100
AcDbSymbolTableRecord
100
AcDbBlockTableRecord
  2
-027-_D29
340
0
102
{BLKREFS
331
394
102
}
  0
BLOCK_RECORD
  5
1C3
330
1
100
AcDbSymbolTableRecord
100
AcDbBlockTableRecord
  2
-028-繧_繝_繝_繝__4-1
340
0
102
{BLKREFS
331
3A6
102
}
  0
BLOCK_RECORD
  5
1DC
330
1
100
AcDbSymbolTableRecord
100
AcDbBlockTableRecord
  2
-029-_D31
340
0
102
{BLKREFS
331
3AF
102
}
  0
BLOCK_RECORD
  5
1E8
330
1
100
AcDbSymbolTableRecord
100
AcDbBlockTableRecord
  2
-030-繧_繝_繝_繝__5-1
340
0
102
{BLKREFS
331
3B6
102
}
  0
BLOCK_RECORD
  5
20C
330
1
100
AcDbSymbolTableRecord
100
AcDbBlockTableRecord
  2
-031-繧_繝_繝_繝__6-1
340
0
102
{BLKREFS
331
3D7
102
}
  0
BLOCK_RECORD
  5
230
330
1
100
AcDbSymbolTableRecord
100
AcDbBlockTableRecord
  2
-032-繧_繝_繝_繝__7-1
340
0
102
{BLKREFS
331
3F8
102
}
  0
BLOCK_RECORD
  5
253
330
1
100
AcDbSymbolTableRecord
100
AcDbBlockTableRecord
  2
-033-_D35
340
0
102
{BLKREFS
331
401
102
}
  0
BLOCK_RECORD
  5
261
330
1
100
AcDbSymbolTableRecord
100
AcDbBlockTableRecord
  2
-034-_D36
340
0
102
{BLKREFS
331
402
102
}
  0
BLOCK_RECORD
  5
26D
330
1
100
AcDbSymbolTableRecord
100
AcDbBlockTableRecord
  2
-035-_D37
340
0
102
{BLKREFS
331
403
102
}
  0
BLOCK_RECORD
  5
279
330
1
100
AcDbSymbolTableRecord
100
AcDbBlockTableRecord
  2
-036-_D38
340
0
102
{BLKREFS
331
404
102
}
  0
BLOCK_RECORD
  5
285
330
1
100
AcDbSymbolTableRecord
100
AcDbBlockTableRecord
  2
-037-_D39
340
0
102
{BLKREFS
331
405
102
}
  0
BLOCK_RECORD
  5
293
330
1
100
AcDbSymbolTableRecord
100
AcDbBlockTableRecord
  2
-038-_D40
340
0
102
{BLKREFS
331
406
102
}
  0
BLOCK_RECORD
  5
29F
330
1
100
AcDbSymbolTableRecord
100
AcDbBlockTableRecord
  2
-041-_D43
340
0
102
{BLKREFS
331
407
102
}
  0
BLOCK_RECORD
  5
2AB
330
1
100
AcDbSymbolTableRecord
100
AcDbBlockTableRecord
  2
-042-_D44
340
0
102
{BLKREFS
331
408
102
}
  0
BLOCK_RECORD
  5
2B8
330
1
100
AcDbSymbolTableRecord
100
AcDbBlockTableRecord
  2
-043-_D45
340
0
102
{BLKREFS
331
409
102
}
  0
ENDTAB
  0
ENDSEC
  0
SECTION
  2
BLOCKS
  0
BLOCK
  5
447
330
1D
100
AcDbEntity
  8
0
100
AcDbBlockBegin
  2
*Model_Space
 70
     0
 10
0.0
 20
0.0
 30
0.0
  3
*Model_Space
  1
Acad:XRef
  0
ENDBLK
  5
448
330
1D
100
AcDbEntity
  8
0
100
AcDbBlockEnd
  0
BLOCK
  5
445
330
1B
100
AcDbEntity
 67
     1
  8
0
100
AcDbBlockBegin
  2
*Paper_Space
 70
     0
 10
0.0
 20
0.0
 30
0.0
  3
*Paper_Space
  1
Acad:XRef
  0
ENDBLK
  5
446
330
1B
100
AcDbEntity
 67
     1
  8
0
100
AcDbBlockEnd
  0
BLOCK
  5
5E
330
5F
100
AcDbEntity
  8
0
100
AcDbBlockBegin
  2
-000-VW_EMPTYBALL
 70
     0
 10
0.0
 20
0.0
 30
0.0
  3
-000-VW_EMPTYBALL
  1

  0
CIRCLE
  5
60
330
5F
100
AcDbEntity
  8
_0-d__0-4__0-0_0
  6
Continuous
 62
     7
100
AcDbCircle
 10
0.4999999999999998
 20
0.4999999999999998
 30
0.0
 40
0.4999999999999998
  0
ENDBLK
  5
61
330
5F
100
AcDbEntity
  8
0
100
AcDbBlockEnd
  0
BLOCK
  5
62
330
63
100
AcDbEntity
  8
0
100
AcDbBlockBegin
  2
-001-_D2
 70
     0
 10
0.0
 20
0.0
 30
0.0
  3
-001-_D2
  1

  0
LINE
  5
64
330
63
100
AcDbEntity
  8
_0-e__0-5__0-2_蟇_豕__3__100__AcDbSymbolTable___70_______1____0__STYLE____5__10__100__AcDbSymbolTableRecord_
  6
Continuous
 62
     7
100
AcDbLine
 10
-1444.091573332815
 20
704.8320896986129
 30
0.0
 11
-1582.191182689702
 21
704.8320896985902
 31
0.0
  0
LINE
  5
65
330
63
100
AcDbEntity
  8
_0-2_蟇_豕__
  6
Continuous
 62
     7
100
AcDbLine
 10
-1440.909592817475
 20
708.0140702139527
 30
0.0
 11
-1582.191182689702
 21
708.0140702139296
 31
0.0
  0
LINE
  5
66
330
63
100
AcDbEntity
  8
_0-2_蟇_豕__
  6
Continuous
 62
     7
100
AcDbLine
 10
-1572.191182689702
 20
704.8320896985918
 30
0.0
 11
-1572.191182689702
 21
708.0140702139312
 31
0.0
  0
LINE
  5
67
330
63
100
AcDbEntity
  8
_0-2_蟇_豕__
  6
Continuous
 62
     7
100
AcDbLine
 10
-1572.191182689701
 20
698.8324559095294
 30
0.0
 11
-1572.1911826897
 21
692.8328221204668
 31
0.0
  0
LINE
  5
68
330
63
100
AcDbEntity
  8
_0-2_蟇_豕__
  6
Continuous
 62
     7
100
AcDbLine
 10
-1572.191182689703
 20
714.0137040029936
 30
0.0
 11
-1572.191182689704
 21
720.0133377920561
 31
0.0
  0
INSERT
  5
69
330
63
100
AcDbEntity
  8
_0-f__0-6__0-2_蟇_豕__0___50__0_0___71_______0___42__1_0____3__txt____4__bigfont_shx____0__ENDTAB____0__EOF__
100
AcDbBlockReference
  2
-000-VW_EMPTYBALL
 10
-1572.191182689702
 20
704.8320896985918
 30
0.0
 41
5.9996337890625
 42
5.9996337890625
 50
90.0000000000082
  0
INSERT
  5
6A
330
63
100
AcDbEntity
  8
_0-2_蟇_豕__
100
AcDbBlockReference
  2
-000-VW_EMPTYBALL
 10
-1572.191182689702
 20
708.0140702139312
 30
0.0
 41
5.9996337890625
 42
5.9996337890625
 50
270.0000000000082
  0
TEXT
  5
6B
330
63
100
AcDbEntity
  8
_0-2_蟇_豕__
 62
     7
100
AcDbText
 10
-1579.655947265626
 20
714.9698486327712
 30
0.0
 40
24.37060546875
  1
3
 50
90.0
100
AcDbText
  0
POINT
  5
6C
330
63
100
AcDbEntity
  8
_1-0__0-7__0-3_Defpoints
 62
     7
100
AcDbPoint
 10
-1434.091573332815
 20
704.8320896986145
 30
0.0
  0
POINT
  5
6D
330
63
100
AcDbEntity
  8
_1-0__0-7__0-3_Defpoints
 62
     7
100
AcDbPoint
 10
-1430.909592817475
 20
708.0140702139543
 30
0.0
  0
POINT
  5
6E
330
63
100
AcDbEntity
  8
_1-0__0-7__0-3_Defpoints
 62
     7
100
AcDbPoint
 10
-1572.191182689702
 20
708.0140702139312
 30
0.0
  0
ENDBLK
  5
6F
330
63
100
AcDbEntity
  8
0
100
AcDbBlockEnd
  0
BLOCK
  5
70
330
71
100
AcDbEntity
  8
0
100
AcDbBlockBegin
  2
-002-_D3
 70
     0
 10
0.0
 20
0.0
 30
0.0
  3
-002-_D3
  1

  0
LINE
  5
72
330
71
100
AcDbEntity
  8
_0-8__0-2_蟇_豕__ts
  6
Continuous
 62
     7
100
AcDbLine
 10
-991.0915733330609
 20
-819.1679103014555
 30
0.0
 11
-991.0915733330609
 21
-932.3275031188231
 31
0.0
  0
LINE
  5
73
330
71
100
AcDbEntity
  8
_0-2_蟇_豕__
  6
Continuous
 62
     7
100
AcDbLine
 10
-1435.091573333061
 20
-819.1679103014555
 30
0.0
 11
-1435.091573333061
 21
-932.3275031188231
 31
0.0
  0
LINE
  5
74
330
71
100
AcDbEntity
  8
_0-2_蟇_豕__
  6
Continuous
 62
     7
100
AcDbLine
 10
-997.0912071221233
 20
-922.3275031188231
 30
0.0
 11
-1429.091939543998
 21
-922.3275031188231
 31
0.0
  0
INSERT
  5
75
330
71
100
AcDbEntity
  8
_0-2_蟇_豕__
100
AcDbBlockReference
  2
-000-VW_EMPTYBALL
 10
-991.0915733330609
 20
-922.3275031188231
 30
0.0
 41
5.9996337890625
 42
5.9996337890625
  0
INSERT
  5
76
330
71
100
AcDbEntity
  8
_0-8__0-2_蟇_豕__ts
100
AcDbBlockReference
  2
-000-VW_EMPTYBALL
 10
-1435.091573333061
 20
-922.3275031188231
 30
0.0
 41
5.9996337890625
 42
5.9996337890625
 50
180.0
  0
TEXT
  5
77
330
71
100
AcDbEntity
  8
_0-2_蟇_豕__
 62
     7
100
AcDbText
 10
-1231.369527434623
 20
-917.327503118823
 30
0.0
 40
24.37060546875
  1
444
100
AcDbText
  0
POINT
  5
78
330
71
100
AcDbEntity
  8
_1-0__0-7__0-3_Defpoints
 62
     7
100
AcDbPoint
 10
-991.0915733330609
 20
-809.1679103014556
 30
0.0
  0
POINT
  5
79
330
71
100
AcDbEntity
  8
_1-0__0-7__0-3_Defpoints
 62
     7
100
AcDbPoint
 10
-1435.091573333061
 20
-809.1679103014556
 30
0.0
  0
POINT
  5
7A
330
71
100
AcDbEntity
  8
_1-0__0-7__0-3_Defpoints
 62
     7
100
AcDbPoint
 10
-1435.091573333061
 20
-922.3275031188231
 30
0.0
  0
ENDBLK
  5
7B
330
71
100
AcDbEntity
  8
0
100
AcDbBlockEnd
  0
BLOCK
  5
7C
330
7D
100
AcDbEntity
  8
0
100
AcDbBlockBegin
  2
-003-_D4
 70
     0
 10
0.0
 20
0.0
 30
0.0
  3
-003-_D4
  1

  0
LINE
  5
7E
330
7D
100
AcDbEntity
  8
_0-8__0-2_蟇_豕__ts
  6
Continuous
 62
     7
100
AcDbLine
 10
-1473.091573333063
 20
-866.9179103013901
 30
0.0
 11
-1670.237201505635
 21
-866.9179103013901
 31
0.0
  0
LINE
  5
7F
330
7D
100
AcDbEntity
  8
_0-8__0-2_蟇_豕__ts
  6
Continuous
 62
     7
100
AcDbLine
 10
-1440.909592817475
 20
708.0140702139543
 30
0.0
 11
-1670.237201505635
 21
708.0140702139543
 31
0.0
  0
LINE
  5
80
330
7D
100
AcDbEntity
  8
_0-e__0-5__0-2_蟇_豕__3__100__AcDbSymbolTable___70_______1____0__STYLE____5__10__100__AcDbSymbolTableRecord_
  6
Continuous
 62
     7
100
AcDbLine
 10
-1660.237201505635
 20
-860.9182765123275
 30
0.0
 11
-1660.237201505635
 21
702.0144364248917
 31
0.0
  0
INSERT
  5
81
330
7D
100
AcDbEntity
  8
_0-8__0-2_蟇_豕__ts
100
AcDbBlockReference
  2
-000-VW_EMPTYBALL
 10
-1660.237201505635
 20
-866.9179103013901
 30
0.0
 41
5.9996337890625
 42
5.9996337890625
 50
270.0
  0
INSERT
  5
82
330
7D
100
AcDbEntity
  8
_0-8__0-2_蟇_豕__ts
100
AcDbBlockReference
  2
-000-VW_EMPTYBALL
 10
-1660.237201505635
 20
708.0140702139543
 30
0.0
 41
5.9996337890625
 42
5.9996337890625
 50
90.0
  0
TEXT
  5
83
330
7D
100
AcDbEntity
  8
_0-2_蟇_豕__
 62
     7
100
AcDbText
 10
-1665.237201505635
 20
-103.8225255124679
 30
0.0
 40
24.37060546875
  1
1575
 50
90.0
100
AcDbText
  0
POINT
  5
84
330
7D
100
AcDbEntity
  8
_1-0__0-7__0-3_Defpoints
 62
     7
100
AcDbPoint
 10
-1463.091573333063
 20
-866.9179103013901
 30
0.0
  0
POINT
  5
85
330
7D
100
AcDbEntity
  8
_1-0__0-7__0-3_Defpoints
 62
     7
100
AcDbPoint
 10
-1430.909592817475
 20
708.0140702139543
 30
0.0
  0
POINT
  5
86
330
7D
100
AcDbEntity
  8
_1-0__0-7__0-3_Defpoints
 62
     7
100
AcDbPoint
 10
-1660.237201505635
 20
708.0140702139543
 30
0.0
  0
ENDBLK
  5
87
330
7D
100
AcDbEntity
  8
0
100
AcDbBlockEnd
  0
BLOCK
  5
88
330
89
100
AcDbEntity
  8
0
100
AcDbBlockBegin
  2
-004-_D5
 70
     0
 10
0.0
 20
0.0
 30
0.0
  3
-004-_D5
  1

  0
LINE
  5
8A
330
89
100
AcDbEntity
  8
_0-2_蟇_豕__
  6
Continuous
 62
     7
100
AcDbLine
 10
-913.0915733329066
 20
-966.9179103015224
 30
0.0
 11
-913.0915733329066
 21
-1061.207810190587
 31
0.0
  0
LINE
  5
8B
330
89
100
AcDbEntity
  8
_0-2_蟇_豕__
  6
Continuous
 62
     7
100
AcDbLine
 10
-1513.091573332955
 20
-966.9179103014245
 30
0.0
 11
-1513.091573332955
 21
-1061.207810190587
 31
0.0
  0
LINE
  5
8C
330
89
100
AcDbEntity
  8
_0-2_蟇_豕__
  6
Continuous
 62
     7
100
AcDbLine
 10
-919.091207121969
 20
-1051.207810190587
 30
0.0
 11
-1507.091939543893
 21
-1051.207810190587
 31
0.0
  0
INSERT
  5
8D
330
89
100
AcDbEntity
  8
_0-2_蟇_豕__
100
AcDbBlockReference
  2
-000-VW_EMPTYBALL
 10
-913.0915733329066
 20
-1051.207810190587
 30
0.0
 41
5.9996337890625
 42
5.9996337890625
  0
INSERT
  5
8E
330
89
100
AcDbEntity
  8
_0-8__0-2_蟇_豕__ts
100
AcDbBlockReference
  2
-000-VW_EMPTYBALL
 10
-1513.091573332955
 20
-1051.207810190587
 30
0.0
 41
5.9996337890625
 42
5.9996337890625
 50
180.0
  0
TEXT
  5
8F
330
89
100
AcDbEntity
  8
_0-e__0-5__0-2_蟇_豕__3__100__AcDbSymbolTable___70_______1____0__STYLE____5__10__100__AcDbSymbolTableRecord_
 62
     7
100
AcDbText
 10
-1231.369527434493
 20
-1046.207810190587
 30
0.0
 40
24.37060546875
  1
600
100
AcDbText
  0
POINT
  5
90
330
89
100
AcDbEntity
  8
_1-0__0-7__0-3_Defpoints
 62
     7
100
AcDbPoint
 10
-913.0915733329066
 20
-956.9179103015224
 30
0.0
  0
POINT
  5
91
330
89
100
AcDbEntity
  8
_1-0__0-7__0-3_Defpoints
 62
     7
100
AcDbPoint
 10
-1513.091573332955
 20
-956.9179103014246
 30
0.0
  0
POINT
  5
92
330
89
100
AcDbEntity
  8
_1-0__0-7__0-3_Defpoints
 62
     7
100
AcDbPoint
 10
-1513.091573332955
 20
-1051.207810190587
 30
0.0
  0
ENDBLK
  5
93
330
89
100
AcDbEntity
  8
0
100
AcDbBlockEnd
  0
BLOCK
  5
94
330
95
100
AcDbEntity
  8
0
100
AcDbBlockBegin
  2
-005-_D6
 70
     0
 10
0.0
 20
0.0
 30
0.0
  3
-005-_D6
  1

  0
LINE
  5
96
330
95
100
AcDbEntity
  8
_0-e__0-5__0-2_蟇_豕__3__100__AcDbSymbolTable___70_______1____0__STYLE____5__10__100__AcDbSymbolTableRecord_
  6
Continuous
 62
     7
100
AcDbLine
 10
-71.15959281748326
 20
177.0140702138114
 30
0.0
 11
-71.15959281748326
 21
-1061.207810190587
 31
0.0
  0
LINE
  5
97
330
95
100
AcDbEntity
  8
_0-8__0-2_蟇_豕__ts
  6
Continuous
 62
     7
100
AcDbLine
 10
-913.0915733329066
 20
-966.9179103015224
 30
0.0
 11
-913.0915733329066
 21
-1061.207810190587
 31
0.0
  0
LINE
  5
98
330
95
100
AcDbEntity
  8
_0-8__0-2_蟇_豕__ts
  6
Continuous
 62
     7
100
AcDbLine
 10
-77.15922660654576
 20
-1051.207810190587
 30
0.0
 11
-907.0919395438441
 21
-1051.207810190587
 31
0.0
  0
INSERT
  5
99
330
95
100
AcDbEntity
  8
_0-2_蟇_豕__
100
AcDbBlockReference
  2
-000-VW_EMPTYBALL
 10
-71.15959281748326
 20
-1051.207810190587
 30
0.0
 41
5.9996337890625
 42
5.9996337890625
  0
INSERT
  5
9A
330
95
100
AcDbEntity
  8
_0-8__0-2_蟇_豕__ts
100
AcDbBlockReference
  2
-000-VW_EMPTYBALL
 10
-913.0915733329066
 20
-1051.207810190587
 30
0.0
 41
5.9996337890625
 42
5.9996337890625
 50
180.0
  0
TEXT
  5
9B
330
95
100
AcDbEntity
  8
_0-e__0-5__0-2_蟇_豕__3__100__AcDbSymbolTable___70_______1____0__STYLE____5__10__100__AcDbSymbolTableRecord_
 62
     7
100
AcDbText
 10
-510.4035371767574
 20
-1046.207810190587
 30
0.0
 40
24.37060546875
  1
842
100
AcDbText
  0
POINT
  5
9C
330
95
100
AcDbEntity
  8
_1-0__0-7__0-3_Defpoints
 62
     7
100
AcDbPoint
 10
-71.15959281748326
 20
187.0140702138114
 30
0.0
  0
POINT
  5
9D
330
95
100
AcDbEntity
  8
_1-0__0-7__0-3_Defpoints
 62
     7
100
AcDbPoint
 10
-913.0915733329066
 20
-956.9179103015224
 30
0.0
  0
POINT
  5
9E
330
95
100
AcDbEntity
  8
_1-0__0-7__0-3_Defpoints
 62
     7
100
AcDbPoint
 10
-913.0915733329066
 20
-1051.207810190587
 30
0.0
  0
ENDBLK
  5
9F
330
95
100
AcDbEntity
  8
0
100
AcDbBlockEnd
  0
BLOCK
  5
A0
330
A1
100
AcDbEntity
  8
0
100
AcDbBlockBegin
  2
-006-_D7
 70
     0
 10
0.0
 20
0.0
 30
0.0
  3
-006-_D7
  1

  0
LINE
  5
A2
330
A1
100
AcDbEntity
  8
_0-8__0-2_蟇_豕__ts
  6
Continuous
 62
     7
100
AcDbLine
 10
228.8404071826141
 20
177.0140702138114
 30
0.0
 11
228.8404071826142
 21
-1061.207810190587
 31
0.0
  0
LINE
  5
A3
330
A1
100
AcDbEntity
  8
_0-8__0-2_蟇_豕__ts
  6
Continuous
 62
     7
100
AcDbLine
 10
-71.15959281748326
 20
177.0140702138114
 30
0.0
 11
-71.15959281748326
 21
-1061.207810190587
 31
0.0
  0
LINE
  5
A4
330
A1
100
AcDbEntity
  8
_0-8__0-2_蟇_豕__ts
  6
Continuous
 62
     7
100
AcDbLine
 10
222.8407733935517
 20
-1051.207810190587
 30
0.0
 11
-65.15995902842075
 21
-1051.207810190587
 31
0.0
  0
INSERT
  5
A5
330
A1
100
AcDbEntity
  8
_0-8__0-2_蟇_豕__ts
100
AcDbBlockReference
  2
-000-VW_EMPTYBALL
 10
228.8404071826142
 20
-1051.207810190587
 30
0.0
 41
5.9996337890625
 42
5.9996337890625
  0
INSERT
  5
A6
330
A1
100
AcDbEntity
  8
_0-8__0-2_蟇_豕__ts
100
AcDbBlockReference
  2
-000-VW_EMPTYBALL
 10
-71.15959281748326
 20
-1051.207810190587
 30
0.0
 41
5.9996337890625
 42
5.9996337890625
 50
180.0
  0
TEXT
  5
A7
330
A1
100
AcDbEntity
  8
_0-e__0-5__0-2_蟇_豕__3__100__AcDbSymbolTable___70_______1____0__STYLE____5__10__100__AcDbSymbolTableRecord_
 62
     7
100
AcDbText
 10
60.56245308100296
 20
-1046.207810190587
 30
0.0
 40
24.37060546875
  1
300
100
AcDbText
  0
POINT
  5
A8
330
A1
100
AcDbEntity
  8
_1-0__0-7__0-3_Defpoints
 62
     7
100
AcDbPoint
 10
228.8404071826141
 20
187.0140702138114
 30
0.0
  0
POINT
  5
A9
330
A1
100
AcDbEntity
  8
_1-0__0-7__0-3_Defpoints
 62
     7
100
AcDbPoint
 10
-71.15959281748326
 20
187.0140702138114
 30
0.0
  0
POINT
  5
AA
330
A1
100
AcDbEntity
  8
_1-0__0-7__0-3_Defpoints
 62
     7
100
AcDbPoint
 10
-71.15959281748326
 20
-1051.207810190587
 30
0.0
  0
ENDBLK
  5
AB
330
A1
100
AcDbEntity
  8
0
100
AcDbBlockEnd
  0
BLOCK
  5
AC
330
AD
100
AcDbEntity
  8
0
100
AcDbBlockBegin
  2
-007-_D8
 70
     0
 10
0.0
 20
0.0
 30
0.0
  3
-007-_D8
  1

  0
LINE
  5
AE
330
AD
100
AcDbEntity
  8
_0-8__0-2_蟇_豕__ts
  6
Continuous
 62
     7
100
AcDbLine
 10
93.09040718252377
 20
265.014070214201
 30
0.0
 11
205.0
 21
265.014070214201
 31
0.0
  0
LINE
  5
AF
330
AD
100
AcDbEntity
  8
_0-8__0-2_蟇_豕__ts
  6
Continuous
 62
     7
100
AcDbLine
 10
93.09040718252377
 20
709.0140702142009
 30
0.0
 11
205.0
 21
709.0140702142009
 31
0.0
  0
LINE
  5
B0
330
AD
100
AcDbEntity
  8
_0-8__0-2_蟇_豕__ts
  6
Continuous
 62
     7
100
AcDbLine
 10
195.0
 20
271.0137040032635
 30
0.0
 11
195.0
 21
703.0144364251384
 31
0.0
  0
INSERT
  5
B1
330
AD
100
AcDbEntity
  8
_0-8__0-2_蟇_豕__ts
100
AcDbBlockReference
  2
-000-VW_EMPTYBALL
 10
195.0
 20
265.014070214201
 30
0.0
 41
5.9996337890625
 42
5.9996337890625
 50
270.0
  0
INSERT
  5
B2
330
AD
100
AcDbEntity
  8
_0-8__0-2_蟇_豕__ts
100
AcDbBlockReference
  2
-000-VW_EMPTYBALL
 10
195.0
 20
709.0140702142009
 30
0.0
 41
5.9996337890625
 42
5.9996337890625
 50
90.0
  0
TEXT
  5
B3
330
AD
100
AcDbEntity
  8
_0-8__0-2_蟇_豕__ts
 62
     7
100
AcDbText
 10
190.0
 20
468.7361161126385
 30
0.0
 40
24.37060546875
  1
444
 50
90.0
100
AcDbText
  0
POINT
  5
B4
330
AD
100
AcDbEntity
  8
_1-0__0-7__0-3_Defpoints
 62
     7
100
AcDbPoint
 10
83.09040718252377
 20
265.014070214201
 30
0.0
  0
POINT
  5
B5
330
AD
100
AcDbEntity
  8
_1-0__0-7__0-3_Defpoints
 62
     7
100
AcDbPoint
 10
83.09040718252377
 20
709.0140702142009
 30
0.0
  0
POINT
  5
B6
330
AD
100
AcDbEntity
  8
_1-0__0-7__0-3_Defpoints
 62
     7
100
AcDbPoint
 10
195.0
 20
709.0140702142009
 30
0.0
  0
ENDBLK
  5
B7
330
AD
100
AcDbEntity
  8
0
100
AcDbBlockEnd
  0
BLOCK
  5
B8
330
B9
100
AcDbEntity
  8
0
100
AcDbBlockBegin
  2
-008-_D9
 70
     0
 10
0.0
 20
0.0
 30
0.0
  3
-008-_D9
  1

  0
LINE
  5
BA
330
B9
100
AcDbEntity
  8
_0-8__0-2_蟇_豕__ts
  6
Continuous
 62
     7
100
AcDbLine
 10
676.2352748554672
 20
-746.91791030139
 30
0.0
 11
580.2212331330623
 21
-746.91791030139
 31
0.0
  0
LINE
  5
BB
330
B9
100
AcDbEntity
  8
_0-2_蟇_豕__
  6
Continuous
 62
     7
100
AcDbLine
 10
669.5554183736141
 20
-866.9179103013901
 30
0.0
 11
580.2212331330623
 21
-866.9179103013901
 31
0.0
  0
LINE
  5
BC
330
B9
100
AcDbEntity
  8
_0-8__0-2_蟇_豕__ts
  6
Continuous
 62
     7
100
AcDbLine
 10
590.2212331330623
 20
-752.9175440904525
 30
0.0
 11
590.2212331330623
 21
-860.9182765123275
 31
0.0
  0
INSERT
  5
BD
330
B9
100
AcDbEntity
  8
_0-8__0-2_蟇_豕__ts
100
AcDbBlockReference
  2
-000-VW_EMPTYBALL
 10
590.2212331330623
 20
-746.91791030139
 30
0.0
 41
5.9996337890625
 42
5.9996337890625
 50
90.0
  0
INSERT
  5
BE
330
B9
100
AcDbEntity
  8
_0-8__0-2_蟇_豕__ts
100
AcDbBlockReference
  2
-000-VW_EMPTYBALL
 10
590.2212331330623
 20
-866.9179103013901
 30
0.0
 41
5.9996337890625
 42
5.9996337890625
 50
270.0
  0
TEXT
  5
BF
330
B9
100
AcDbEntity
  8
_0-8__0-2_蟇_豕__ts
 62
     7
100
AcDbText
 10
585.2212331330624
 20
-825.1958644029524
 30
0.0
 40
24.37060546875
  1
120
 50
90.0
100
AcDbText
  0
POINT
  5
C0
330
B9
100
AcDbEntity
  8
_1-0__0-7__0-3_Defpoints
 62
     7
100
AcDbPoint
 10
686.2352748554672
 20
-746.91791030139
 30
0.0
  0
POINT
  5
C1
330
B9
100
AcDbEntity
  8
_1-0__0-7__0-3_Defpoints
 62
     7
100
AcDbPoint
 10
679.5554183736141
 20
-866.9179103013901
 30
0.0
  0
POINT
  5
C2
330
B9
100
AcDbEntity
  8
_1-0__0-7__0-3_Defpoints
 62
     7
100
AcDbPoint
 10
590.2212331330623
 20
-866.9179103013901
 30
0.0
  0
ENDBLK
  5
C3
330
B9
100
AcDbEntity
  8
0
100
AcDbBlockEnd
  0
BLOCK
  5
C4
330
C5
100
AcDbEntity
  8
0
100
AcDbBlockBegin
  2
-009-_D10
 70
     0
 10
0.0
 20
0.0
 30
0.0
  3
-009-_D10
  1

  0
LINE
  5
C6
330
C5
100
AcDbEntity
  8
_0-8__0-2_蟇_豕__ts
  6
Continuous
 62
     7
100
AcDbLine
 10
669.5554183736141
 20
237.0140702140007
 30
0.0
 11
580.2212331330622
 21
237.0140702140006
 31
0.0
  0
LINE
  5
C7
330
C5
100
AcDbEntity
  8
_0-8__0-2_蟇_豕__ts
  6
Continuous
 62
     7
100
AcDbLine
 10
676.2352748554672
 20
-746.91791030139
 30
0.0
 11
580.2212331330623
 21
-746.91791030139
 31
0.0
  0
LINE
  5
C8
330
C5
100
AcDbEntity
  8
_0-2_蟇_豕__
  6
Continuous
 62
     7
100
AcDbLine
 10
590.2212331330622
 20
231.0144364249381
 30
0.0
 11
590.2212331330623
 21
-740.9182765123276
 31
0.0
  0
INSERT
  5
C9
330
C5
100
AcDbEntity
  8
_0-8__0-2_蟇_豕__ts
100
AcDbBlockReference
  2
-000-VW_EMPTYBALL
 10
590.2212331330622
 20
237.0140702140006
 30
0.0
 41
5.9996337890625
 42
5.9996337890625
 50
90.00000000000003
  0
INSERT
  5
CA
330
C5
100
AcDbEntity
  8
_0-8__0-2_蟇_豕__ts
100
AcDbBlockReference
  2
-000-VW_EMPTYBALL
 10
590.2212331330623
 20
-746.91791030139
 30
0.0
 41
5.9996337890625
 42
5.9996337890625
 50
270.0
  0
TEXT
  5
CB
330
C5
100
AcDbEntity
  8
_0-8__0-2_蟇_豕__ts
 62
     7
100
AcDbText
 10
585.2212331330622
 20
-273.2298741452572
 30
0.0
 40
24.37060546875
  1
984
 50
90.0
100
AcDbText
  0
POINT
  5
CC
330
C5
100
AcDbEntity
  8
_1-0__0-7__0-3_Defpoints
 62
     7
100
AcDbPoint
 10
679.5554183736141
 20
237.0140702140007
 30
0.0
  0
POINT
  5
CD
330
C5
100
AcDbEntity
  8
_1-0__0-7__0-3_Defpoints
 62
     7
100
AcDbPoint
 10
686.2352748554672
 20
-746.91791030139
 30
0.0
  0
POINT
  5
CE
330
C5
100
AcDbEntity
  8
_1-0__0-7__0-3_Defpoints
 62
     7
100
AcDbPoint
 10
590.2212331330623
 20
-746.91791030139
 30
0.0
  0
ENDBLK
  5
CF
330
C5
100
AcDbEntity
  8
0
100
AcDbBlockEnd
  0
BLOCK
  5
D0
330
D1
100
AcDbEntity
  8
0
100
AcDbBlockBegin
  2
-010-_D11
 70
     0
 10
0.0
 20
0.0
 30
0.0
  3
-010-_D11
  1

  0
LINE
  5
D2
330
D1
100
AcDbEntity
  8
_0-8__0-2_蟇_豕__ts
  6
Continuous
 62
     7
100
AcDbLine
 10
669.5554183736141
 20
737.0140702140006
 30
0.0
 11
580.2212331330623
 21
737.0140702140006
 31
0.0
  0
LINE
  5
D3
330
D1
100
AcDbEntity
  8
_0-8__0-2_蟇_豕__ts
  6
Continuous
 62
     7
100
AcDbLine
 10
634.555418373614
 20
237.0140702140007
 30
0.0
 11
580.2212331330623
 21
237.0140702140007
 31
0.0
  0
LINE
  5
D4
330
D1
100
AcDbEntity
  8
_0-8__0-2_蟇_豕__ts
  6
Continuous
 62
     7
100
AcDbLine
 10
590.2212331330623
 20
731.0144364249381
 30
0.0
 11
590.2212331330623
 21
243.0137040030632
 31
0.0
  0
INSERT
  5
D5
330
D1
100
AcDbEntity
  8
_0-8__0-2_蟇_豕__ts
100
AcDbBlockReference
  2
-000-VW_EMPTYBALL
 10
590.2212331330623
 20
737.0140702140006
 30
0.0
 41
5.9996337890625
 42
5.9996337890625
 50
90.0
  0
INSERT
  5
D6
330
D1
100
AcDbEntity
  8
_0-8__0-2_蟇_豕__ts
100
AcDbBlockReference
  2
-000-VW_EMPTYBALL
 10
590.2212331330623
 20
237.0140702140007
 30
0.0
 41
5.9996337890625
 42
5.9996337890625
 50
270.0
  0
TEXT
  5
D7
330
D1
100
AcDbEntity
  8
_0-8__0-2_蟇_豕__ts
 62
     7
100
AcDbText
 10
585.2212331330624
 20
468.7361161124382
 30
0.0
 40
24.37060546875
  1
500
 50
90.0
100
AcDbText
  0
POINT
  5
D8
330
D1
100
AcDbEntity
  8
_1-0__0-7__0-3_Defpoints
 62
     7
100
AcDbPoint
 10
679.5554183736141
 20
737.0140702140006
 30
0.0
  0
POINT
  5
D9
330
D1
100
AcDbEntity
  8
_1-0__0-7__0-3_Defpoints
 62
     7
100
AcDbPoint
 10
644.5554183736141
 20
237.0140702140007
 30
0.0
  0
POINT
  5
DA
330
D1
100
AcDbEntity
  8
_1-0__0-7__0-3_Defpoints
 62
     7
100
AcDbPoint
 10
590.2212331330623
 20
237.0140702140007
 30
0.0
  0
ENDBLK
  5
DB
330
D1
100
AcDbEntity
  8
0
100
AcDbBlockEnd
  0
BLOCK
  5
DC
330
DD
100
AcDbEntity
  8
0
100
AcDbBlockBegin
  2
-011-_D12
 70
     0
 10
0.0
 20
0.0
 30
0.0
  3
-011-_D12
  1

  0
LINE
  5
DE
330
DD
100
AcDbEntity
  8
_0-8__0-2_蟇_豕__ts
  6
Continuous
 62
     7
100
AcDbLine
 10
951.2352748554672
 20
741.0140702140002
 30
0.0
 11
951.2352748554672
 21
853.9905723210996
 31
0.0
  0
LINE
  5
DF
330
DD
100
AcDbEntity
  8
_0-8__0-2_蟇_豕__ts
  6
Continuous
 62
     7
100
AcDbLine
 10
921.2352748554671
 20
748.2642450718575
 30
0.0
 11
921.2352748554671
 21
853.9905723210996
 31
0.0
  0
LINE
  5
E0
330
DD
100
AcDbEntity
  8
_0-2_蟇_豕__
  6
Continuous
 62
     7
100
AcDbLine
 10
951.2352748554672
 20
843.9905723210994
 30
0.0
 11
921.2352748554671
 21
843.9905723210994
 31
0.0
  0
LINE
  5
E1
330
DD
100
AcDbEntity
  8
_0-8__0-2_蟇_豕__ts
  6
Continuous
 62
     7
100
AcDbLine
 10
957.2349086445298
 20
843.9905723210994
 30
0.0
 11
963.2345424335921
 21
843.9905723210994
 31
0.0
  0
LINE
  5
E2
330
DD
100
AcDbEntity
  8
_0-8__0-2_蟇_豕__ts
  6
Continuous
 62
     7
100
AcDbLine
 10
915.2356410664047
 20
843.9905723210994
 30
0.0
 11
909.2360072773422
 21
843.9905723210994
 31
0.0
  0
INSERT
  5
E3
330
DD
100
AcDbEntity
  8
_0-8__0-2_蟇_豕__ts
100
AcDbBlockReference
  2
-000-VW_EMPTYBALL
 10
951.2352748554672
 20
843.9905723210994
 30
0.0
 41
5.9996337890625
 42
5.9996337890625
 50
180.0
  0
INSERT
  5
E4
330
DD
100
AcDbEntity
  8
_0-8__0-2_蟇_豕__ts
100
AcDbBlockReference
  2
-000-VW_EMPTYBALL
 10
921.2352748554671
 20
843.9905723210994
 30
0.0
 41
5.9996337890625
 42
5.9996337890625
  0
TEXT
  5
E5
330
DD
100
AcDbEntity
  8
_0-8__0-2_蟇_豕__ts
 62
     7
100
AcDbText
 10
924.0499721210921
 20
848.9905723210995
 30
0.0
 40
24.37060546875
  1
30
100
AcDbText
  0
POINT
  5
E6
330
DD
100
AcDbEntity
  8
_1-0__0-7__0-3_Defpoints
 62
     7
100
AcDbPoint
 10
951.2352748554672
 20
731.0140702140001
 30
0.0
  0
POINT
  5
E7
330
DD
100
AcDbEntity
  8
_1-0__0-7__0-3_Defpoints
 62
     7
100
AcDbPoint
 10
921.2352748554671
 20
738.2642450718575
 30
0.0
  0
POINT
  5
E8
330
DD
100
AcDbEntity
  8
_1-0__0-7__0-3_Defpoints
 62
     7
100
AcDbPoint
 10
921.2352748554671
 20
843.9905723210994
 30
0.0
  0
ENDBLK
  5
E9
330
DD
100
AcDbEntity
  8
0
100
AcDbBlockEnd
  0
BLOCK
  5
EA
330
EB
100
AcDbEntity
  8
0
100
AcDbBlockBegin
  2
-012-_D13
 70
     0
 10
0.0
 20
0.0
 30
0.0
  3
-012-_D13
  1

  0
LINE
  5
EC
330
EB
100
AcDbEntity
  8
_0-8__0-2_蟇_豕__ts
  6
Continuous
 62
     7
100
AcDbLine
 10
1336.235274855467
 20
747.0140702140001
 30
0.0
 11
1336.235274855467
 21
853.9905723210996
 31
0.0
  0
LINE
  5
ED
330
EB
100
AcDbEntity
  8
_0-8__0-2_蟇_豕__ts
  6
Continuous
 62
     7
100
AcDbLine
 10
951.2352748554672
 20
741.0140702140002
 30
0.0
 11
951.2352748554672
 21
853.9905723210996
 31
0.0
  0
LINE
  5
EE
330
EB
100
AcDbEntity
  8
_0-8__0-2_蟇_豕__ts
  6
Continuous
 62
     7
100
AcDbLine
 10
1330.235641066404
 20
843.9905723210994
 30
0.0
 11
957.2349086445298
 21
843.9905723210994
 31
0.0
  0
INSERT
  5
EF
330
EB
100
AcDbEntity
  8
_0-8__0-2_蟇_豕__ts
100
AcDbBlockReference
  2
-000-VW_EMPTYBALL
 10
1336.235274855467
 20
843.9905723210994
 30
0.0
 41
5.9996337890625
 42
5.9996337890625
  0
INSERT
  5
F0
330
EB
100
AcDbEntity
  8
_0-8__0-2_蟇_豕__ts
100
AcDbBlockReference
  2
-000-VW_EMPTYBALL
 10
951.2352748554672
 20
843.9905723210994
 30
0.0
 41
5.9996337890625
 42
5.9996337890625
 50
180.0
  0
TEXT
  5
F1
330
EB
100
AcDbEntity
  8
_0-8__0-2_蟇_豕__ts
 62
     7
100
AcDbText
 10
1125.457320753904
 20
848.9905723210995
 30
0.0
 40
24.37060546875
  1
385
100
AcDbText
  0
POINT
  5
F2
330
EB
100
AcDbEntity
  8
_1-0__0-7__0-3_Defpoints
 62
     7
100
AcDbPoint
 10
1336.235274855467
 20
737.0140702140002
 30
0.0
  0
POINT
  5
F3
330
EB
100
AcDbEntity
  8
_1-0__0-7__0-3_Defpoints
 62
     7
100
AcDbPoint
 10
951.2352748554672
 20
731.0140702140001
 30
0.0
  0
POINT
  5
F4
330
EB
100
AcDbEntity
  8
_1-0__0-7__0-3_Defpoints
 62
     7
100
AcDbPoint
 10
951.2352748554672
 20
843.9905723210994
 30
0.0
  0
ENDBLK
  5
F5
330
EB
100
AcDbEntity
  8
0
100
AcDbBlockEnd
  0
BLOCK
  5
F6
330
F7
100
AcDbEntity
  8
0
100
AcDbBlockBegin
  2
-013-_D14
 70
     0
 10
0.0
 20
0.0
 30
0.0
  3
-013-_D14
  1

  0
LINE
  5
F8
330
F7
100
AcDbEntity
  8
_0-8__0-2_蟇_豕__ts
  6
Continuous
 62
     7
100
AcDbLine
 10
1336.235274855467
 20
747.0140702140001
 30
0.0
 11
1336.235274855467
 21
921.5053422235508
 31
0.0
  0
LINE
  5
F9
330
F7
100
AcDbEntity
  8
_0-2_蟇_豕__
  6
Continuous
 62
     7
100
AcDbLine
 10
921.2352748554671
 20
738.2642450718575
 30
0.0
 11
921.2352748554671
 21
921.5053422235508
 31
0.0
  0
LINE
  5
FA
330
F7
100
AcDbEntity
  8
_0-2_蟇_豕__
  6
Continuous
 62
     7
100
AcDbLine
 10
1330.235641066404
 20
911.5053422235508
 30
0.0
 11
927.2349086445297
 21
911.5053422235508
 31
0.0
  0
INSERT
  5
FB
330
F7
100
AcDbEntity
  8
_0-8__0-2_蟇_豕__ts
100
AcDbBlockReference
  2
-000-VW_EMPTYBALL
 10
1336.235274855467
 20
911.5053422235508
 30
0.0
 41
5.9996337890625
 42
5.9996337890625
  0
INSERT
  5
FC
330
F7
100
AcDbEntity
  8
_0-8__0-2_蟇_豕__ts
100
AcDbBlockReference
  2
-000-VW_EMPTYBALL
 10
921.2352748554671
 20
911.5053422235508
 30
0.0
 41
5.9996337890625
 42
5.9996337890625
 50
180.0
  0
TEXT
  5
FD
330
F7
100
AcDbEntity
  8
_0-2_蟇_豕__
 62
     7
100
AcDbText
 10
1110.457320753904
 20
916.5053422235507
 30
0.0
 40
24.37060546875
  1
415
100
AcDbText
  0
POINT
  5
FE
330
F7
100
AcDbEntity
  8
_1-0__0-7__0-3_Defpoints
 62
     7
100
AcDbPoint
 10
1336.235274855467
 20
737.0140702140002
 30
0.0
  0
POINT
  5
FF
330
F7
100
AcDbEntity
  8
_1-0__0-7__0-3_Defpoints
 62
     7
100
AcDbPoint
 10
921.2352748554671
 20
728.2642450718575
 30
0.0
  0
POINT
  5
100
330
F7
100
AcDbEntity
  8
_1-0__0-7__0-3_Defpoints
 62
     7
100
AcDbPoint
 10
921.2352748554671
 20
911.5053422235508
 30
0.0
  0
ENDBLK
  5
101
330
F7
100
AcDbEntity
  8
0
100
AcDbBlockEnd
  0
BLOCK
  5
102
330
103
100
AcDbEntity
  8
0
100
AcDbBlockBegin
  2
-014-_D15
 70
     0
 10
0.0
 20
0.0
 30
0.0
  3
-014-_D15
  1

  0
LINE
  5
104
330
103
100
AcDbEntity
  8
_0-8__0-2_蟇_豕__ts
  6
Continuous
 62
     7
100
AcDbLine
 10
643.3054183736141
 20
737.0140702140002
 30
0.0
 11
503.8870478925105
 21
737.0140702140002
 31
0.0
  0
LINE
  5
105
330
103
100
AcDbEntity
  8
_0-8__0-2_蟇_豕__ts
  6
Continuous
 62
     7
100
AcDbLine
 10
676.2352748554672
 20
-866.9179103013901
 30
0.0
 11
503.8870478925105
 21
-866.9179103013901
 31
0.0
  0
LINE
  5
106
330
103
100
AcDbEntity
  8
_0-2_蟇_豕__
  6
Continuous
 62
     7
100
AcDbLine
 10
513.8870478925105
 20
731.0144364249376
 30
0.0
 11
513.8870478925106
 21
-860.9182765123275
 31
0.0
  0
INSERT
  5
107
330
103
100
AcDbEntity
  8
_0-8__0-2_蟇_豕__ts
100
AcDbBlockReference
  2
-000-VW_EMPTYBALL
 10
513.8870478925105
 20
737.0140702140002
 30
0.0
 41
5.9996337890625
 42
5.9996337890625
 50
90.0
  0
INSERT
  5
108
330
103
100
AcDbEntity
  8
_0-8__0-2_蟇_豕__ts
100
AcDbBlockReference
  2
-000-VW_EMPTYBALL
 10
513.8870478925106
 20
-866.9179103013901
 30
0.0
 41
5.9996337890625
 42
5.9996337890625
 50
270.0
  0
TEXT
  5
109
330
103
100
AcDbEntity
  8
_0-8__0-2_蟇_豕__ts
 62
     7
100
AcDbText
 10
508.8870478925104
 20
-89.32252551244493
 30
0.0
 40
24.37060546875
  1
1604
 50
90.0
100
AcDbText
  0
POINT
  5
10A
330
103
100
AcDbEntity
  8
_1-0__0-7__0-3_Defpoints
 62
     7
100
AcDbPoint
 10
653.305418373614
 20
737.0140702140002
 30
0.0
  0
POINT
  5
10B
330
103
100
AcDbEntity
  8
_1-0__0-7__0-3_Defpoints
 62
     7
100
AcDbPoint
 10
686.2352748554672
 20
-866.9179103013901
 30
0.0
  0
POINT
  5
10C
330
103
100
AcDbEntity
  8
_1-0__0-7__0-3_Defpoints
 62
     7
100
AcDbPoint
 10
513.8870478925106
 20
-866.9179103013901
 30
0.0
  0
ENDBLK
  5
10D
330
103
100
AcDbEntity
  8
0
100
AcDbBlockEnd
  0
BLOCK
  5
10E
330
10F
100
AcDbEntity
  8
0
100
AcDbBlockBegin
  2
-015-繧_繝_繝_繝__2-1
 70
     0
 10
0.0
 20
0.0
 30
0.0
  3
-015-繧_繝_繝_繝__2-1
  1

  0
LINE
  5
110
330
10F
100
AcDbEntity
  8
_0-1_荳_闊_
  6
Continuous
 62
     7
100
AcDbLine
 10
1334.471182648633
 20
-959.842866588921
 30
0.0
 11
1334.471182648633
 21
-659.842866588921
 31
0.0
  0
LINE
  5
111
330
10F
100
AcDbEntity
  8
_0-1_荳_闊_
  6
Continuous
 62
     7
100
AcDbLine
 10
1334.471182648633
 20
-659.842866588921
 30
0.0
 11
1634.471182648633
 21
-659.842866588921
 31
0.0
  0
LINE
  5
112
330
10F
100
AcDbEntity
  8
_0-1_荳_闊_
  6
Continuous
 62
     7
100
AcDbLine
 10
1634.471182648633
 20
-659.842866588921
 30
0.0
 11
1634.471182648633
 21
-959.842866588921
 31
0.0
  0
LINE
  5
113
330
10F
100
AcDbEntity
  8
_0-1_荳_闊_
  6
Continuous
 62
     7
100
AcDbLine
 10
1634.471182648633
 20
-959.842866588921
 30
0.0
 11
1334.471182648633
 21
-959.842866588921
 31
0.0
  0
LINE
  5
114
330
10F
100
AcDbEntity
  8
_0-1_荳_闊_
  6
Continuous
 62
     7
100
AcDbLine
 10
1634.471182648632
 20
-984.842866588921
 30
0.0
 11
1634.471182648632
 21
-634.842866588921
 31
0.0
  0
LINE
  5
115
330
10F
100
AcDbEntity
  8
_0-1_荳_闊_
  6
Continuous
 62
     7
100
AcDbLine
 10
1634.471182648632
 20
-634.842866588921
 30
0.0
 11
1684.471182648632
 21
-634.842866588921
 31
0.0
  0
LINE
  5
116
330
10F
100
AcDbEntity
  8
_0-1_荳_闊_
  6
Continuous
 62
     7
100
AcDbLine
 10
1684.471182648632
 20
-634.842866588921
 30
0.0
 11
1684.471182648632
 21
-984.842866588921
 31
0.0
  0
LINE
  5
117
330
10F
100
AcDbEntity
  8
_0-1_荳_闊_
  6
Continuous
 62
     7
100
AcDbLine
 10
1684.471182648632
 20
-984.842866588921
 30
0.0
 11
1634.471182648632
 21
-984.842866588921
 31
0.0
  0
LINE
  5
118
330
10F
100
AcDbEntity
  8
_0-1_荳_闊_
  6
Continuous
 62
     7
100
AcDbLine
 10
1684.471182648632
 20
-972.2181556748671
 30
0.0
 11
1634.471182648633
 21
-943.3506422153888
 31
0.0
  0
LINE
  5
119
330
10F
100
AcDbEntity
  8
_0-1_荳_闊_
  6
Continuous
 62
     7
100
AcDbLine
 10
1638.978317742347
 20
-945.9528378750189
 30
0.0
 11
1634.471182648633
 21
-950.4599729687335
 31
0.0
  0
LINE
  5
11A
330
10F
100
AcDbEntity
  8
_0-1_荳_闊_
  6
Continuous
 62
     7
100
AcDbLine
 10
1684.471182648632
 20
-965.1088249215218
 30
0.0
 11
1679.964047554917
 21
-969.615960015237
 31
0.0
  0
LINE
  5
11B
330
10F
100
AcDbEntity
  8
_0-1_荳_闊_
  6
Continuous
 62
     7
100
AcDbLine
 10
1684.471182648632
 20
-921.7784247869991
 30
0.0
 11
1634.471182648633
 21
-892.910911327521
 31
0.0
  0
LINE
  5
11C
330
10F
100
AcDbEntity
  8
_0-1_荳_闊_
  6
Continuous
 62
     7
100
AcDbLine
 10
1638.978317742347
 20
-895.513106987151
 30
0.0
 11
1634.471182648633
 21
-900.0202420808657
 31
0.0
  0
LINE
  5
11D
330
10F
100
AcDbEntity
  8
_0-1_荳_闊_
  6
Continuous
 62
     7
100
AcDbLine
 10
1684.471182648632
 20
-914.669094033654
 30
0.0
 11
1679.964047554917
 21
-919.176229127369
 31
0.0
  0
LINE
  5
11E
330
10F
100
AcDbEntity
  8
_0-1_荳_闊_
  6
Continuous
 62
     7
100
AcDbLine
 10
1684.471182648632
 20
-871.3386938991313
 30
0.0
 11
1634.471182648633
 21
-842.471180439653
 31
0.0
  0
LINE
  5
11F
330
10F
100
AcDbEntity
  8
_0-1_荳_闊_
  6
Continuous
 62
     7
100
AcDbLine
 10
1638.978317742347
 20
-845.0733760992831
 30
0.0
 11
1634.471182648633
 21
-849.5805111929977
 31
0.0
  0
LINE
  5
120
330
10F
100
AcDbEntity
  8
_0-1_荳_闊_
  6
Continuous
 62
     7
100
AcDbLine
 10
1684.471182648632
 20
-864.229363145786
 30
0.0
 11
1679.964047554917
 21
-868.7364982395012
 31
0.0
  0
LINE
  5
121
330
10F
100
AcDbEntity
  8
_0-1_荳_闊_
  6
Continuous
 62
     7
100
AcDbLine
 10
1684.471182648632
 20
-820.8989630112634
 30
0.0
 11
1634.471182648633
 21
-792.0314495517851
 31
0.0
  0
LINE
  5
122
330
10F
100
AcDbEntity
  8
_0-1_荳_闊_
  6
Continuous
 62
     7
100
AcDbLine
 10
1638.978317742347
 20
-794.6336452114152
 30
0.0
 11
1634.471182648633
 21
-799.1407803051298
 31
0.0
  0
LINE
  5
123
330
10F
100
AcDbEntity
  8
_0-1_荳_闊_
  6
Continuous
 62
     7
100
AcDbLine
 10
1684.471182648632
 20
-813.7896322579182
 30
0.0
 11
1679.964047554917
 21
-818.2967673516333
 31
0.0
  0
LINE
  5
124
330
10F
100
AcDbEntity
  8
_0-1_荳_闊_
  6
Continuous
 62
     7
100
AcDbLine
 10
1684.471182648632
 20
-770.4592321233954
 30
0.0
 11
1634.471182648633
 21
-741.5917186639172
 31
0.0
  0
LINE
  5
125
330
10F
100
AcDbEntity
  8
_0-1_荳_闊_
  6
Continuous
 62
     7
100
AcDbLine
 10
1638.978317742347
 20
-744.1939143235473
 30
0.0
 11
1634.471182648633
 21
-748.7010494172619
 31
0.0
  0
LINE
  5
126
330
10F
100
AcDbEntity
  8
_0-1_荳_闊_
  6
Continuous
 62
     7
100
AcDbLine
 10
1684.471182648632
 20
-763.3499013700503
 30
0.0
 11
1679.964047554917
 21
-767.8570364637654
 31
0.0
  0
LINE
  5
127
330
10F
100
AcDbEntity
  8
_0-1_荳_闊_
  6
Continuous
 62
     7
100
AcDbLine
 10
1684.471182648632
 20
-720.0195012355276
 30
0.0
 11
1634.471182648633
 21
-691.1519877760492
 31
0.0
  0
LINE
  5
128
330
10F
100
AcDbEntity
  8
_0-1_荳_闊_
  6
Continuous
 62
     7
100
AcDbLine
 10
1638.978317742347
 20
-693.7541834356793
 30
0.0
 11
1634.471182648633
 21
-698.2613185293944
 31
0.0
  0
LINE
  5
129
330
10F
100
AcDbEntity
  8
_0-1_荳_闊_
  6
Continuous
 62
     7
100
AcDbLine
 10
1684.471182648632
 20
-712.9101704821829
 30
0.0
 11
1679.964047554917
 21
-717.4173055758975
 31
0.0
  0
LINE
  5
12A
330
10F
100
AcDbEntity
  8
_0-1_荳_闊_
  6
Continuous
 62
     7
100
AcDbLine
 10
1684.471182648632
 20
-669.5797703476596
 30
0.0
 11
1634.471182648633
 21
-640.7122568881813
 31
0.0
  0
LINE
  5
12B
330
10F
100
AcDbEntity
  8
_0-1_荳_闊_
  6
Continuous
 62
     7
100
AcDbLine
 10
1638.978317742347
 20
-643.3144525478114
 30
0.0
 11
1634.471182648633
 21
-647.8215876415265
 31
0.0
  0
LINE
  5
12C
330
10F
100
AcDbEntity
  8
_0-1_荳_闊_
  6
Continuous
 62
     7
100
AcDbLine
 10
1684.471182648632
 20
-662.4704395943149
 30
0.0
 11
1679.964047554917
 21
-666.9775746880295
 31
0.0
  0
LINE
  5
12D
330
10F
100
AcDbEntity
  8
_0-1_荳_闊_
  6
Continuous
 62
     7
100
AcDbLine
 10
1344.387197102803
 20
-659.8428665889209
 30
0.0
 11
1634.737743065648
 21
-950.1934125517182
 31
0.0
  0
LINE
  5
12E
330
10F
100
AcDbEntity
  8
_0-1_荳_闊_
  6
Continuous
 62
     7
100
AcDbLine
 10
1634.471182648632
 20
-968.9534209972071
 30
0.0
 11
1634.737743065648
 21
-969.2199814142224
 31
0.0
  0
LINE
  5
12F
330
10F
100
AcDbEntity
  8
_0-1_荳_闊_
  6
Continuous
 62
     7
100
AcDbLine
 10
1359.38545730308
 20
-659.8428665889209
 30
0.0
 11
1634.737743065648
 21
-935.1951523514445
 31
0.0
  0
LINE
  5
130
330
10F
100
AcDbEntity
  8
_0-1_荳_闊_
  6
Continuous
 62
     7
100
AcDbLine
 10
1374.383717503356
 20
-659.8428665889209
 30
0.0
 11
1634.737743065648
 21
-920.1968921511708
 31
0.0
  0
ENDBLK
  5
131
330
10F
100
AcDbEntity
  8
0
100
AcDbBlockEnd
  0
BLOCK
  5
132
330
133
100
AcDbEntity
  8
0
100
AcDbBlockBegin
  2
-016-_D17
 70
     0
 10
0.0
 20
0.0
 30
0.0
  3
-016-_D17
  1

  0
LINE
  5
134
330
133
100
AcDbEntity
  8
_0-2_蟇_豕__
  6
Continuous
 62
     7
100
AcDbLine
 10
1346.235274855467
 20
-841.9179103013901
 30
0.0
 11
1437.312138586478
 21
-841.9179103013901
 31
0.0
  0
LINE
  5
135
330
133
100
AcDbEntity
  8
_0-8__0-2_蟇_豕__ts
  6
Continuous
 62
     7
100
AcDbLine
 10
1346.235274855467
 20
-771.91791030139
 30
0.0
 11
1437.312138586478
 21
-771.91791030139
 31
0.0
  0
LINE
  5
136
330
133
100
AcDbEntity
  8
_0-8__0-2_蟇_豕__ts
  6
Continuous
 62
     7
100
AcDbLine
 10
1427.312138586478
 20
-835.9182765123275
 30
0.0
 11
1427.312138586478
 21
-777.9175440904525
 31
0.0
  0
INSERT
  5
137
330
133
100
AcDbEntity
  8
_0-8__0-2_蟇_豕__ts
100
AcDbBlockReference
  2
-000-VW_EMPTYBALL
 10
1427.312138586478
 20
-841.9179103013901
 30
0.0
 41
5.9996337890625
 42
5.9996337890625
 50
270.0
  0
INSERT
  5
138
330
133
100
AcDbEntity
  8
_0-2_蟇_豕__
100
AcDbBlockReference
  2
-000-VW_EMPTYBALL
 10
1427.312138586478
 20
-771.91791030139
 30
0.0
 41
5.9996337890625
 42
5.9996337890625
 50
90.0
  0
TEXT
  5
139
330
133
100
AcDbEntity
  8
_0-8__0-2_蟇_豕__ts
 62
     7
100
AcDbText
 10
1422.312138586478
 20
-819.1032130357651
 30
0.0
 40
24.37060546875
  1
70
 50
90.0
100
AcDbText
  0
POINT
  5
13A
330
133
100
AcDbEntity
  8
_1-0__0-7__0-3_Defpoints
 62
     7
100
AcDbPoint
 10
1336.235274855467
 20
-841.9179103013901
 30
0.0
  0
POINT
  5
13B
330
133
100
AcDbEntity
  8
_1-0__0-7__0-3_Defpoints
 62
     7
100
AcDbPoint
 10
1336.235274855467
 20
-771.91791030139
 30
0.0
  0
POINT
  5
13C
330
133
100
AcDbEntity
  8
_1-0__0-7__0-3_Defpoints
 62
     7
100
AcDbPoint
 10
1427.312138586478
 20
-771.91791030139
 30
0.0
  0
ENDBLK
  5
13D
330
133
100
AcDbEntity
  8
0
100
AcDbBlockEnd
  0
BLOCK
  5
13E
330
13F
100
AcDbEntity
  8
0
100
AcDbBlockBegin
  2
-017-_D18
 70
     0
 10
0.0
 20
0.0
 30
0.0
  3
-017-_D18
  1

  0
LINE
  5
140
330
13F
100
AcDbEntity
  8
_0-8__0-2_蟇_豕__ts
  6
Continuous
 62
     7
100
AcDbLine
 10
1636.235274855467
 20
824.828085085304
 30
0.0
 11
1636.235274855467
 21
986.1064391011796
 31
0.0
  0
LINE
  5
141
330
13F
100
AcDbEntity
  8
_0-8__0-2_蟇_豕__ts
  6
Continuous
 62
     7
100
AcDbLine
 10
1336.235274855467
 20
810.5023212675495
 30
0.0
 11
1336.235274855467
 21
986.1064391011796
 31
0.0
  0
LINE
  5
142
330
13F
100
AcDbEntity
  8
_0-8__0-2_蟇_豕__ts
  6
Continuous
 62
     7
100
AcDbLine
 10
1630.235641066404
 20
976.1064391011796
 30
0.0
 11
1342.234908644529
 21
976.1064391011796
 31
0.0
  0
INSERT
  5
143
330
13F
100
AcDbEntity
  8
_0-8__0-2_蟇_豕__ts
100
AcDbBlockReference
  2
-000-VW_EMPTYBALL
 10
1636.235274855467
 20
976.1064391011796
 30
0.0
 41
5.9996337890625
 42
5.9996337890625
  0
INSERT
  5
144
330
13F
100
AcDbEntity
  8
_0-8__0-2_蟇_豕__ts
100
AcDbBlockReference
  2
-000-VW_EMPTYBALL
 10
1336.235274855467
 20
976.1064391011796
 30
0.0
 41
5.9996337890625
 42
5.9996337890625
 50
180.0
  0
TEXT
  5
145
330
13F
100
AcDbEntity
  8
_0-2_蟇_豕__
 62
     7
100
AcDbText
 10
1467.957320753904
 20
981.1064391011795
 30
0.0
 40
24.37060546875
  1
300
100
AcDbText
  0
POINT
  5
146
330
13F
100
AcDbEntity
  8
_1-0__0-7__0-3_Defpoints
 62
     7
100
AcDbPoint
 10
1636.235274855467
 20
814.8280850853041
 30
0.0
  0
POINT
  5
147
330
13F
100
AcDbEntity
  8
_1-0__0-7__0-3_Defpoints
 62
     7
100
AcDbPoint
 10
1336.235274855467
 20
800.5023212675496
 30
0.0
  0
POINT
  5
148
330
13F
100
AcDbEntity
  8
_1-0__0-7__0-3_Defpoints
 62
     7
100
AcDbPoint
 10
1336.235274855467
 20
976.1064391011796
 30
0.0
  0
ENDBLK
  5
149
330
13F
100
AcDbEntity
  8
0
100
AcDbBlockEnd
  0
BLOCK
  5
14A
330
14B
100
AcDbEntity
  8
0
100
AcDbBlockBegin
  2
-018-_D19
 70
     0
 10
0.0
 20
0.0
 30
0.0
  3
-018-_D19
  1

  0
LINE
  5
14C
330
14B
100
AcDbEntity
  8
_0-8__0-2_蟇_豕__ts
  6
Continuous
 62
     7
100
AcDbLine
 10
1686.235274855467
 20
824.828085085304
 30
0.0
 11
1686.235274855467
 21
986.1064391011796
 31
0.0
  0
LINE
  5
14D
330
14B
100
AcDbEntity
  8
_0-9__0-2_蟇_豕___2-1
  6
Continuous
 62
     7
100
AcDbLine
 10
1636.235274855467
 20
824.828085085304
 30
0.0
 11
1636.235274855467
 21
986.1064391011796
 31
0.0
  0
LINE
  5
14E
330
14B
100
AcDbEntity
  8
_0-2_蟇_豕__
  6
Continuous
 62
     7
100
AcDbLine
 10
1680.235641066404
 20
976.1064391011796
 30
0.0
 11
1642.234908644529
 21
976.1064391011796
 31
0.0
  0
INSERT
  5
14F
330
14B
100
AcDbEntity
  8
_0-8__0-2_蟇_豕__ts
100
AcDbBlockReference
  2
-000-VW_EMPTYBALL
 10
1686.235274855467
 20
976.1064391011796
 30
0.0
 41
5.9996337890625
 42
5.9996337890625
  0
INSERT
  5
150
330
14B
100
AcDbEntity
  8
_0-8__0-2_蟇_豕__ts
100
AcDbBlockReference
  2
-000-VW_EMPTYBALL
 10
1636.235274855467
 20
976.1064391011796
 30
0.0
 41
5.9996337890625
 42
5.9996337890625
 50
180.0
  0
TEXT
  5
151
330
14B
100
AcDbEntity
  8
_0-8__0-2_蟇_豕__ts
 62
     7
100
AcDbText
 10
1649.049972121092
 20
981.1064391011795
 30
0.0
 40
24.37060546875
  1
50
100
AcDbText
  0
POINT
  5
152
330
14B
100
AcDbEntity
  8
_1-0__0-7__0-3_Defpoints
 62
     7
100
AcDbPoint
 10
1686.235274855467
 20
814.8280850853041
 30
0.0
  0
POINT
  5
153
330
14B
100
AcDbEntity
  8
_1-0__0-7__0-3_Defpoints
 62
     7
100
AcDbPoint
 10
1636.235274855467
 20
814.8280850853041
 30
0.0
  0
POINT
  5
154
330
14B
100
AcDbEntity
  8
_1-0__0-7__0-3_Defpoints
 62
     7
100
AcDbPoint
 10
1636.235274855467
 20
976.1064391011796
 30
0.0
  0
ENDBLK
  5
155
330
14B
100
AcDbEntity
  8
0
100
AcDbBlockEnd
  0
BLOCK
  5
156
330
157
100
AcDbEntity
  8
0
100
AcDbBlockBegin
  2
-019-_D20
 70
     0
 10
0.0
 20
0.0
 30
0.0
  3
-019-_D20
  1

  0
LINE
  5
158
330
157
100
AcDbEntity
  8
_0-8__0-2_蟇_豕__ts
  6
Continuous
 62
     7
100
AcDbLine
 10
1304.967497077689
 20
687.0140702140002
 30
0.0
 11
1266.593098100642
 21
687.0140702140002
 31
0.0
  0
LINE
  5
159
330
157
100
AcDbEntity
  8
_0-8__0-2_蟇_豕__ts
  6
Continuous
 62
     7
100
AcDbLine
 10
1304.967497077689
 20
287.0140702140003
 30
0.0
 11
1266.593098100642
 21
287.0140702140003
 31
0.0
  0
LINE
  5
15A
330
157
100
AcDbEntity
  8
_0-2_蟇_豕__
  6
Continuous
 62
     7
100
AcDbLine
 10
1276.593098100642
 20
681.0144364249376
 30
0.0
 11
1276.593098100642
 21
293.0137040030628
 31
0.0
  0
INSERT
  5
15B
330
157
100
AcDbEntity
  8
_0-8__0-2_蟇_豕__ts
100
AcDbBlockReference
  2
-000-VW_EMPTYBALL
 10
1276.593098100642
 20
687.0140702140002
 30
0.0
 41
5.9996337890625
 42
5.9996337890625
 50
90.0
  0
INSERT
  5
15C
330
157
100
AcDbEntity
  8
_0-8__0-2_蟇_豕__ts
100
AcDbBlockReference
  2
-000-VW_EMPTYBALL
 10
1276.593098100642
 20
287.0140702140003
 30
0.0
 41
5.9996337890625
 42
5.9996337890625
 50
270.0
  0
TEXT
  5
15D
330
157
100
AcDbEntity
  8
_0-8__0-2_蟇_豕__ts
 62
     7
100
AcDbText
 10
1271.593098100642
 20
468.7361161124377
 30
0.0
 40
24.37060546875
  1
400
 50
90.0
100
AcDbText
  0
POINT
  5
15E
330
157
100
AcDbEntity
  8
_1-0__0-7__0-3_Defpoints
 62
     7
100
AcDbPoint
 10
1314.967497077689
 20
687.0140702140002
 30
0.0
  0
POINT
  5
15F
330
157
100
AcDbEntity
  8
_1-0__0-7__0-3_Defpoints
 62
     7
100
AcDbPoint
 10
1314.967497077689
 20
287.0140702140003
 30
0.0
  0
POINT
  5
160
330
157
100
AcDbEntity
  8
_1-0__0-7__0-3_Defpoints
 62
     7
100
AcDbPoint
 10
1276.593098100642
 20
287.0140702140003
 30
0.0
  0
ENDBLK
  5
161
330
157
100
AcDbEntity
  8
0
100
AcDbBlockEnd
  0
BLOCK
  5
162
330
163
100
AcDbEntity
  8
0
100
AcDbBlockBegin
  2
-020-_D21
 70
     0
 10
0.0
 20
0.0
 30
0.0
  3
-020-_D21
  1

  0
LINE
  5
164
330
163
100
AcDbEntity
  8
_0-8__0-2_蟇_豕__ts
  6
Continuous
 62
     7
100
AcDbLine
 10
965.7352748554671
 20
-759.41791030139
 30
0.0
 11
1063.887047892511
 21
-759.41791030139
 31
0.0
  0
LINE
  5
165
330
163
100
AcDbEntity
  8
_0-2_蟇_豕__
  6
Continuous
 62
     7
100
AcDbLine
 10
965.7352748554671
 20
-854.4179103013901
 30
0.0
 11
1063.887047892511
 21
-854.4179103013901
 31
0.0
  0
LINE
  5
166
330
163
100
AcDbEntity
  8
_0-2_蟇_豕__
  6
Continuous
 62
     7
100
AcDbLine
 10
1053.887047892511
 20
-765.4175440904525
 30
0.0
 11
1053.887047892511
 21
-848.4182765123275
 31
0.0
  0
INSERT
  5
167
330
163
100
AcDbEntity
  8
_0-8__0-2_蟇_豕__ts
100
AcDbBlockReference
  2
-000-VW_EMPTYBALL
 10
1053.887047892511
 20
-759.41791030139
 30
0.0
 41
5.9996337890625
 42
5.9996337890625
 50
90.0
  0
INSERT
  5
168
330
163
100
AcDbEntity
  8
_0-8__0-2_蟇_豕__ts
100
AcDbBlockReference
  2
-000-VW_EMPTYBALL
 10
1053.887047892511
 20
-854.4179103013901
 30
0.0
 41
5.9996337890625
 42
5.9996337890625
 50
270.0
  0
TEXT
  5
169
330
163
100
AcDbEntity
  8
_0-2_蟇_豕__
 62
     7
100
AcDbText
 10
1048.887047892511
 20
-819.1032130357651
 30
0.0
 40
24.37060546875
  1
95
 50
90.0
100
AcDbText
  0
POINT
  5
16A
330
163
100
AcDbEntity
  8
_1-0__0-7__0-3_Defpoints
 62
     7
100
AcDbPoint
 10
955.7352748554672
 20
-759.41791030139
 30
0.0
  0
POINT
  5
16B
330
163
100
AcDbEntity
  8
_1-0__0-7__0-3_Defpoints
 62
     7
100
AcDbPoint
 10
955.7352748554672
 20
-854.4179103013901
 30
0.0
  0
POINT
  5
16C
330
163
100
AcDbEntity
  8
_1-0__0-7__0-3_Defpoints
 62
     7
100
AcDbPoint
 10
1053.887047892511
 20
-854.4179103013901
 30
0.0
  0
ENDBLK
  5
16D
330
163
100
AcDbEntity
  8
0
100
AcDbBlockEnd
  0
BLOCK
  5
16E
330
16F
100
AcDbEntity
  8
0
100
AcDbBlockBegin
  2
-021-_D22
 70
     0
 10
0.0
 20
0.0
 30
0.0
  3
-021-_D22
  1

  0
LINE
  5
170
330
16F
100
AcDbEntity
  8
_0-8__0-2_蟇_豕__ts
  6
Continuous
 62
     7
100
AcDbLine
 10
921.2352748554671
 20
738.2642450718575
 30
0.0
 11
921.2352748554671
 21
921.5053422235508
 31
0.0
  0
LINE
  5
171
330
16F
100
AcDbEntity
  8
_0-8__0-2_蟇_豕__ts
  6
Continuous
 62
     7
100
AcDbLine
 10
686.2352748554672
 20
726.0140702140006
 30
0.0
 11
686.2352748554672
 21
921.5053422235508
 31
0.0
  0
LINE
  5
172
330
16F
100
AcDbEntity
  8
_0-8__0-2_蟇_豕__ts
  6
Continuous
 62
     7
100
AcDbLine
 10
915.2356410664047
 20
911.5053422235508
 30
0.0
 11
692.2349086445296
 21
911.5053422235508
 31
0.0
  0
INSERT
  5
173
330
16F
100
AcDbEntity
  8
_0-8__0-2_蟇_豕__ts
100
AcDbBlockReference
  2
-000-VW_EMPTYBALL
 10
921.2352748554671
 20
911.5053422235508
 30
0.0
 41
5.9996337890625
 42
5.9996337890625
  0
INSERT
  5
174
330
16F
100
AcDbEntity
  8
_0-8__0-2_蟇_豕__ts
100
AcDbBlockReference
  2
-000-VW_EMPTYBALL
 10
686.2352748554672
 20
911.5053422235508
 30
0.0
 41
5.9996337890625
 42
5.9996337890625
 50
180.0
  0
TEXT
  5
175
330
16F
100
AcDbEntity
  8
_0-8__0-2_蟇_豕__ts
 62
     7
100
AcDbText
 10
785.4573207539047
 20
916.5053422235507
 30
0.0
 40
24.37060546875
  1
235
100
AcDbText
  0
POINT
  5
176
330
16F
100
AcDbEntity
  8
_1-0__0-7__0-3_Defpoints
 62
     7
100
AcDbPoint
 10
921.2352748554671
 20
728.2642450718575
 30
0.0
  0
POINT
  5
177
330
16F
100
AcDbEntity
  8
_1-0__0-7__0-3_Defpoints
 62
     7
100
AcDbPoint
 10
686.2352748554672
 20
716.0140702140006
 30
0.0
  0
POINT
  5
178
330
16F
100
AcDbEntity
  8
_1-0__0-7__0-3_Defpoints
 62
     7
100
AcDbPoint
 10
686.2352748554672
 20
911.5053422235508
 30
0.0
  0
ENDBLK
  5
179
330
16F
100
AcDbEntity
  8
0
100
AcDbBlockEnd
  0
BLOCK
  5
17A
330
17B
100
AcDbEntity
  8
0
100
AcDbBlockBegin
  2
-022-_D23
 70
     0
 10
0.0
 20
0.0
 30
0.0
  3
-022-_D23
  1

  0
LINE
  5
17C
330
17B
100
AcDbEntity
  8
_0-2_蟇_豕__
  6
Continuous
 62
     7
100
AcDbLine
 10
1336.235274855467
 20
887.8825242211631
 30
0.0
 11
1336.235274855467
 21
986.1064391011796
 31
0.0
  0
LINE
  5
17D
330
17B
100
AcDbEntity
  8
_0-8__0-2_蟇_豕__ts
  6
Continuous
 62
     7
100
AcDbLine
 10
686.2352748554672
 20
726.0140702140006
 30
0.0
 11
686.2352748554672
 21
986.1064391011796
 31
0.0
  0
LINE
  5
17E
330
17B
100
AcDbEntity
  8
_0-8__0-2_蟇_豕__ts
  6
Continuous
 62
     7
100
AcDbLine
 10
1330.235641066404
 20
976.1064391011796
 30
0.0
 11
692.2349086445296
 21
976.1064391011796
 31
0.0
  0
INSERT
  5
17F
330
17B
100
AcDbEntity
  8
_0-8__0-2_蟇_豕__ts
100
AcDbBlockReference
  2
-000-VW_EMPTYBALL
 10
1336.235274855467
 20
976.1064391011796
 30
0.0
 41
5.9996337890625
 42
5.9996337890625
  0
INSERT
  5
180
330
17B
100
AcDbEntity
  8
_0-2_蟇_豕__
100
AcDbBlockReference
  2
-000-VW_EMPTYBALL
 10
686.2352748554672
 20
976.1064391011796
 30
0.0
 41
5.9996337890625
 42
5.9996337890625
 50
180.0
  0
TEXT
  5
181
330
17B
100
AcDbEntity
  8
_0-8__0-2_蟇_豕__ts
 62
     7
100
AcDbText
 10
992.9573207539045
 20
981.1064391011795
 30
0.0
 40
24.37060546875
  1
650
100
AcDbText
  0
POINT
  5
182
330
17B
100
AcDbEntity
  8
_1-0__0-7__0-3_Defpoints
 62
     7
100
AcDbPoint
 10
1336.235274855467
 20
877.8825242211631
 30
0.0
  0
POINT
  5
183
330
17B
100
AcDbEntity
  8
_1-0__0-7__0-3_Defpoints
 62
     7
100
AcDbPoint
 10
686.2352748554672
 20
716.0140702140006
 30
0.0
  0
POINT
  5
184
330
17B
100
AcDbEntity
  8
_1-0__0-7__0-3_Defpoints
 62
     7
100
AcDbPoint
 10
686.2352748554672
 20
976.1064391011796
 30
0.0
  0
ENDBLK
  5
185
330
17B
100
AcDbEntity
  8
0
100
AcDbBlockEnd
  0
BLOCK
  5
186
330
187
100
AcDbEntity
  8
0
100
AcDbBlockBegin
  2
-023-_D24
 70
     0
 10
0.0
 20
0.0
 30
0.0
  3
-023-_D24
  1

  0
LINE
  5
188
330
187
100
AcDbEntity
  8
_0-8__0-2_蟇_豕__ts
  6
Continuous
 62
     7
100
AcDbLine
 10
1646.235274855467
 20
187.0140702140003
 30
0.0
 11
1773.887047162966
 21
187.0140702140003
 31
0.0
  0
LINE
  5
189
330
187
100
AcDbEntity
  8
_0-8__0-2_蟇_豕__ts
  6
Continuous
 62
     7
100
AcDbLine
 10
1646.235274855467
 20
787.0140702140003
 30
0.0
 11
1773.887047162966
 21
787.0140702140003
 31
0.0
  0
LINE
  5
18A
330
187
100
AcDbEntity
  8
_0-8__0-2_蟇_豕__ts
  6
Continuous
 62
     7
100
AcDbLine
 10
1763.887047162966
 20
193.0137040030628
 30
0.0
 11
1763.887047162966
 21
781.0144364249378
 31
0.0
  0
INSERT
  5
18B
330
187
100
AcDbEntity
  8
_0-8__0-2_蟇_豕__ts
100
AcDbBlockReference
  2
-000-VW_EMPTYBALL
 10
1763.887047162966
 20
187.0140702140003
 30
0.0
 41
5.9996337890625
 42
5.9996337890625
 50
270.0
  0
INSERT
  5
18C
330
187
100
AcDbEntity
  8
_0-8__0-2_蟇_豕__ts
100
AcDbBlockReference
  2
-000-VW_EMPTYBALL
 10
1763.887047162966
 20
787.0140702140003
 30
0.0
 41
5.9996337890625
 42
5.9996337890625
 50
90.0
  0
TEXT
  5
18D
330
187
100
AcDbEntity
  8
_0-2_蟇_豕__
 62
     7
100
AcDbText
 10
1758.887047162966
 20
468.7361161124377
 30
0.0
 40
24.37060546875
  1
600
 50
90.0
100
AcDbText
  0
POINT
  5
18E
330
187
100
AcDbEntity
  8
_1-0__0-7__0-3_Defpoints
 62
     7
100
AcDbPoint
 10
1636.235274855467
 20
187.0140702140003
 30
0.0
  0
POINT
  5
18F
330
187
100
AcDbEntity
  8
_1-0__0-7__0-3_Defpoints
 62
     7
100
AcDbPoint
 10
1636.235274855467
 20
787.0140702140003
 30
0.0
  0
POINT
  5
190
330
187
100
AcDbEntity
  8
_1-0__0-7__0-3_Defpoints
 62
     7
100
AcDbPoint
 10
1763.887047162966
 20
787.0140702140003
 30
0.0
  0
ENDBLK
  5
191
330
187
100
AcDbEntity
  8
0
100
AcDbBlockEnd
  0
BLOCK
  5
192
330
193
100
AcDbEntity
  8
0
100
AcDbBlockBegin
  2
-024-_D25
 70
     0
 10
0.0
 20
0.0
 30
0.0
  3
-024-_D25
  1

  0
LINE
  5
194
330
193
100
AcDbEntity
  8
_0-8__0-2_蟇_豕__ts
  6
Continuous
 62
     7
100
AcDbLine
 10
1646.235274855467
 20
-656.91791030139
 30
0.0
 11
1773.887047162966
 21
-656.91791030139
 31
0.0
  0
LINE
  5
195
330
193
100
AcDbEntity
  8
_0-8__0-2_蟇_豕__ts
  6
Continuous
 62
     7
100
AcDbLine
 10
1646.235274855467
 20
187.0140702140003
 30
0.0
 11
1773.887047162966
 21
187.0140702140003
 31
0.0
  0
LINE
  5
196
330
193
100
AcDbEntity
  8
_0-8__0-2_蟇_豕__ts
  6
Continuous
 62
     7
100
AcDbLine
 10
1763.887047162966
 20
-650.9182765123275
 30
0.0
 11
1763.887047162966
 21
181.0144364249378
 31
0.0
  0
INSERT
  5
197
330
193
100
AcDbEntity
  8
_0-8__0-2_蟇_豕__ts
100
AcDbBlockReference
  2
-000-VW_EMPTYBALL
 10
1763.887047162966
 20
-656.91791030139
 30
0.0
 41
5.9996337890625
 42
5.9996337890625
 50
270.0
  0
INSERT
  5
198
330
193
100
AcDbEntity
  8
_0-8__0-2_蟇_豕__ts
100
AcDbBlockReference
  2
-000-VW_EMPTYBALL
 10
1763.887047162966
 20
187.0140702140003
 30
0.0
 41
5.9996337890625
 42
5.9996337890625
 50
90.0
  0
TEXT
  5
199
330
193
100
AcDbEntity
  8
_0-8__0-2_蟇_豕__ts
 62
     7
100
AcDbText
 10
1758.887047162966
 20
-253.2298741452574
 30
0.0
 40
24.37060546875
  1
844
 50
90.0
100
AcDbText
  0
POINT
  5
19A
330
193
100
AcDbEntity
  8
_1-0__0-7__0-3_Defpoints
 62
     7
100
AcDbPoint
 10
1636.235274855467
 20
-656.91791030139
 30
0.0
  0
POINT
  5
19B
330
193
100
AcDbEntity
  8
_1-0__0-7__0-3_Defpoints
 62
     7
100
AcDbPoint
 10
1636.235274855467
 20
187.0140702140003
 30
0.0
  0
POINT
  5
19C
330
193
100
AcDbEntity
  8
_1-0__0-7__0-3_Defpoints
 62
     7
100
AcDbPoint
 10
1763.887047162966
 20
187.0140702140003
 30
0.0
  0
ENDBLK
  5
19D
330
193
100
AcDbEntity
  8
0
100
AcDbBlockEnd
  0
BLOCK
  5
19E
330
19F
100
AcDbEntity
  8
0
100
AcDbBlockBegin
  2
-025-_D26
 70
     0
 10
0.0
 20
0.0
 30
0.0
  3
-025-_D26
  1

  0
LINE
  5
1A0
330
19F
100
AcDbEntity
  8
_0-8__0-2_蟇_豕__ts
  6
Continuous
 62
     7
100
AcDbLine
 10
1646.235274855467
 20
-956.9179103013901
 30
0.0
 11
1773.887047162966
 21
-956.9179103013901
 31
0.0
  0
LINE
  5
1A1
330
19F
100
AcDbEntity
  8
_0-8__0-2_蟇_豕__ts
  6
Continuous
 62
     7
100
AcDbLine
 10
1646.235274855467
 20
-656.91791030139
 30
0.0
 11
1773.887047162966
 21
-656.91791030139
 31
0.0
  0
LINE
  5
1A2
330
19F
100
AcDbEntity
  8
_0-8__0-2_蟇_豕__ts
  6
Continuous
 62
     7
100
AcDbLine
 10
1763.887047162966
 20
-950.9182765123275
 30
0.0
 11
1763.887047162966
 21
-662.9175440904525
 31
0.0
  0
INSERT
  5
1A3
330
19F
100
AcDbEntity
  8
_0-8__0-2_蟇_豕__ts
100
AcDbBlockReference
  2
-000-VW_EMPTYBALL
 10
1763.887047162966
 20
-956.9179103013901
 30
0.0
 41
5.9996337890625
 42
5.9996337890625
 50
270.0
  0
INSERT
  5
1A4
330
19F
100
AcDbEntity
  8
_0-2_蟇_豕__
100
AcDbBlockReference
  2
-000-VW_EMPTYBALL
 10
1763.887047162966
 20
-656.91791030139
 30
0.0
 41
5.9996337890625
 42
5.9996337890625
 50
90.0
  0
TEXT
  5
1A5
330
19F
100
AcDbEntity
  8
_0-8__0-2_蟇_豕__ts
 62
     7
100
AcDbText
 10
1758.887047162966
 20
-825.1958644029524
 30
0.0
 40
24.37060546875
  1
300
 50
90.0
100
AcDbText
  0
POINT
  5
1A6
330
19F
100
AcDbEntity
  8
_1-0__0-7__0-3_Defpoints
 62
     7
100
AcDbPoint
 10
1636.235274855467
 20
-956.9179103013901
 30
0.0
  0
POINT
  5
1A7
330
19F
100
AcDbEntity
  8
_1-0__0-7__0-3_Defpoints
 62
     7
100
AcDbPoint
 10
1636.235274855467
 20
-656.91791030139
 30
0.0
  0
POINT
  5
1A8
330
19F
100
AcDbEntity
  8
_1-0__0-7__0-3_Defpoints
 62
     7
100
AcDbPoint
 10
1763.887047162966
 20
-656.91791030139
 30
0.0
  0
ENDBLK
  5
1A9
330
19F
100
AcDbEntity
  8
0
100
AcDbBlockEnd
  0
BLOCK
  5
1AA
330
1AB
100
AcDbEntity
  8
0
100
AcDbBlockBegin
  2
-026-_D27
 70
     0
 10
0.0
 20
0.0
 30
0.0
  3
-026-_D27
  1

  0
LINE
  5
1AC
330
1AB
100
AcDbEntity
  8
_0-8__0-2_蟇_豕__ts
  6
Continuous
 62
     7
100
AcDbLine
 10
-953.0915733330793
 20
-866.9179103013901
 30
0.0
 11
330.0000000000002
 21
-866.9179103013899
 31
0.0
  0
LINE
  5
1AD
330
1AB
100
AcDbEntity
  8
_0-8__0-2_蟇_豕__ts
  6
Continuous
 62
     7
100
AcDbLine
 10
150.8404071825306
 20
737.0140702140006
 30
0.0
 11
330.0000000000001
 21
737.0140702140006
 31
0.0
  0
LINE
  5
1AE
330
1AB
100
AcDbEntity
  8
_0-9__0-2_蟇_豕___2-1
  6
Continuous
 62
     7
100
AcDbLine
 10
320.0000000000002
 20
-860.9182765123273
 30
0.0
 11
320.0000000000001
 21
731.0144364249381
 31
0.0
  0
INSERT
  5
1AF
330
1AB
100
AcDbEntity
  8
_0-2_蟇_豕__
100
AcDbBlockReference
  2
-000-VW_EMPTYBALL
 10
320.0000000000002
 20
-866.9179103013899
 30
0.0
 41
5.9996337890625
 42
5.9996337890625
 50
270.0
  0
INSERT
  5
1B0
330
1AB
100
AcDbEntity
  8
_0-8__0-2_蟇_豕__ts
100
AcDbBlockReference
  2
-000-VW_EMPTYBALL
 10
320.0000000000001
 20
737.0140702140006
 30
0.0
 41
5.9996337890625
 42
5.9996337890625
 50
90.0
  0
TEXT
  5
1B1
330
1AB
100
AcDbEntity
  8
_0-2_蟇_豕__
 62
     7
100
AcDbText
 10
315.0000000000002
 20
-89.32252551244459
 30
0.0
 40
24.37060546875
  1
1604
 50
90.0
100
AcDbText
  0
POINT
  5
1B2
330
1AB
100
AcDbEntity
  8
_1-0__0-7__0-3_Defpoints
 62
     7
100
AcDbPoint
 10
-963.0915733330793
 20
-866.9179103013901
 30
0.0
  0
POINT
  5
1B3
330
1AB
100
AcDbEntity
  8
_1-0__0-7__0-3_Defpoints
 62
     7
100
AcDbPoint
 10
140.8404071825306
 20
737.0140702140006
 30
0.0
  0
POINT
  5
1B4
330
1AB
100
AcDbEntity
  8
_1-0__0-7__0-3_Defpoints
 62
     7
100
AcDbPoint
 10
320.0000000000001
 20
737.0140702140006
 30
0.0
  0
ENDBLK
  5
1B5
330
1AB
100
AcDbEntity
  8
0
100
AcDbBlockEnd
  0
BLOCK
  5
1B6
330
1B7
100
AcDbEntity
  8
0
100
AcDbBlockBegin
  2
-027-_D29
 70
     0
 10
0.0
 20
0.0
 30
0.0
  3
-027-_D29
  1

  0
LINE
  5
1B8
330
1B7
100
AcDbEntity
  8
_0-8__0-2_蟇_豕__ts
  6
Continuous
 62
     7
100
AcDbLine
 10
911.2352748554672
 20
709.0140702140002
 30
0.0
 11
865.7627984943651
 21
709.0140702140004
 31
0.0
  0
LINE
  5
1B9
330
1B7
100
AcDbEntity
  8
_0-8__0-2_蟇_豕__ts
  6
Continuous
 62
     7
100
AcDbLine
 10
911.2352748554672
 20
265.0140702140003
 30
0.0
 11
865.7627984943651
 21
265.0140702140003
 31
0.0
  0
LINE
  5
1BA
330
1B7
100
AcDbEntity
  8
_0-8__0-2_蟇_豕__ts
  6
Continuous
 62
     7
100
AcDbLine
 10
875.7627984943651
 20
703.0144364249379
 30
0.0
 11
875.7627984943651
 21
271.0137040030628
 31
0.0
  0
INSERT
  5
1BB
330
1B7
100
AcDbEntity
  8
_0-8__0-2_蟇_豕__ts
100
AcDbBlockReference
  2
-000-VW_EMPTYBALL
 10
875.7627984943651
 20
709.0140702140004
 30
0.0
 41
5.9996337890625
 42
5.9996337890625
 50
90.0
  0
INSERT
  5
1BC
330
1B7
100
AcDbEntity
  8
_0-2_蟇_豕__
100
AcDbBlockReference
  2
-000-VW_EMPTYBALL
 10
875.7627984943651
 20
265.0140702140003
 30
0.0
 41
5.9996337890625
 42
5.9996337890625
 50
270.0
  0
TEXT
  5
1BD
330
1B7
100
AcDbEntity
  8
_0-2_蟇_豕__
 62
     7
100
AcDbText
 10
870.7627984943652
 20
470.7669999015004
 30
0.0
 40
21.66276041666664
  1
444
 50
90.0
100
AcDbText
  0
POINT
  5
1BE
330
1B7
100
AcDbEntity
  8
_1-0__0-7__0-3_Defpoints
 62
     7
100
AcDbPoint
 10
921.2352748554671
 20
709.0140702140002
 30
0.0
  0
POINT
  5
1BF
330
1B7
100
AcDbEntity
  8
_1-0__0-7__0-3_Defpoints
 62
     7
100
AcDbPoint
 10
921.2352748554671
 20
265.0140702140003
 30
0.0
  0
POINT
  5
1C0
330
1B7
100
AcDbEntity
  8
_1-0__0-7__0-3_Defpoints
 62
     7
100
AcDbPoint
 10
875.7627984943651
 20
265.0140702140003
 30
0.0
  0
ENDBLK
  5
1C1
330
1B7
100
AcDbEntity
  8
0
100
AcDbBlockEnd
  0
BLOCK
  5
1C2
330
1C3
100
AcDbEntity
  8
0
100
AcDbBlockBegin
  2
-028-繧_繝_繝_繝__4-1
 70
     0
 10
0.0
 20
0.0
 30
0.0
  3
-028-繧_繝_繝_繝__4-1
  1

  0
LINE
  5
1C4
330
1C3
100
AcDbEntity
  8
_0-1_荳_闊_
  6
繝_繧_繝_繧_繧_繝__24
 62
     7
100
AcDbLine
 10
-1425.85566553965
 20
624.3784358077683
 30
0.0
 11
-1012.489803698749
 21
211.0125739668677
 31
0.0
  0
LINE
  5
1C5
330
1C3
100
AcDbEntity
  8
_0-1_荳_闊_
  6
繝_繧_繝_繧_繧_繝__24
 62
     7
100
AcDbLine
 10
-1425.85566553965
 20
624.3784358077683
 30
0.0
 11
-1425.85566553965
 21
691.907133411084
 31
0.0
  0
LINE
  5
1C6
330
1C3
100
AcDbEntity
  8
_0-1_荳_闊_
  6
繝_繧_繝_繧_繧_繝__24
 62
     7
100
AcDbLine
 10
-1003.85566553965
 20
219.6467121259659
 30
0.0
 11
-1003.855665539649
 21
269.9071334110834
 31
0.0
  0
LINE
  5
1C7
330
1C3
100
AcDbEntity
  8
_0-1_荳_闊_
  6
繝_繧_繝_繧_繧_繝__24
 62
     7
100
AcDbLine
 10
-1003.85566553965
 20
219.6467121259659
 30
0.0
 11
-1012.489803698749
 21
211.0125739668676
 31
0.0
  0
LINE
  5
1C8
330
1C3
100
AcDbEntity
  8
_0-1_荳_闊_
  6
繝_繧_繝_繧_繧_繝__24
 62
     7
100
AcDbLine
 10
-1355.144987420963
 20
695.0891139264162
 30
0.0
 11
-941.7791255799278
 21
281.7232520853805
 31
0.0
  0
LINE
  5
1C9
330
1C3
100
AcDbEntity
  8
_0-1_荳_闊_
  6
繝_繧_繝_繧_繧_繝__24
 62
     7
100
AcDbLine
 10
-1355.144987420963
 20
695.0891139264162
 30
0.0
 11
-1422.673685024303
 21
695.0891139264162
 31
0.0
  0
LINE
  5
1CA
330
1C3
100
AcDbEntity
  8
_0-1_荳_闊_
  6
繝_繧_繝_繧_繧_繝__24
 62
     7
100
AcDbLine
 10
-950.4132637390268
 20
273.0891139262814
 30
0.0
 11
-1000.673685024144
 21
273.0891139262814
 31
0.0
  0
LINE
  5
1CB
330
1C3
100
AcDbEntity
  8
_0-1_荳_闊_
  6
繝_繧_繝_繧_繧_繝__24
 62
     7
100
AcDbLine
 10
-950.4132637390268
 20
273.0891139262814
 30
0.0
 11
-941.7791255799278
 21
281.7232520853805
 31
0.0
  0
LINE
  5
1CC
330
1C3
100
AcDbEntity
  8
_0-1_荳_闊_
  6
繝_繧_繝_繧_繧_繝__24
 62
     7
100
AcDbLine
 10
-1118.473513326424
 20
338.1621981011481
 30
0.0
 11
-1068.976038643366
 21
387.6596727842065
 31
0.0
  0
LINE
  5
1CD
330
1C3
100
AcDbEntity
  8
_0-1_荳_闊_
  6
繝_繧_繝_繧_繧_繝__24
 62
     7
100
AcDbLine
 10
-1068.976038643366
 20
387.6596727842065
 30
0.0
 11
-1064.733397956247
 21
383.4170320970872
 31
0.0
  0
LINE
  5
1CE
330
1C3
100
AcDbEntity
  8
_0-1_荳_闊_
  6
繝_繧_繝_繧_繧_繝__24
 62
     7
100
AcDbLine
 10
-1064.733397956247
 20
383.4170320970872
 30
0.0
 11
-1114.230872639305
 21
333.9195574140289
 31
0.0
  0
LINE
  5
1CF
330
1C3
100
AcDbEntity
  8
_0-1_荳_闊_
  6
繝_繧_繝_繧_繧_繝__24
 62
     7
100
AcDbLine
 10
-1114.230872639305
 20
333.9195574140289
 30
0.0
 11
-1118.473513326424
 21
338.1621981011481
 31
0.0
  0
LINE
  5
1D0
330
1C3
100
AcDbEntity
  8
_0-1_荳_闊_
  6
Continuous
 62
     7
100
AcDbLine
 10
-1089.482135297776
 20
358.6682947555577
 30
0.0
 11
-1095.575833024276
 21
364.7643216474793
 31
0.0
  0
LINE
  5
1D1
330
1C3
100
AcDbEntity
  8
_0-1_荳_闊_
  6
繝_繧_繝_繧_繧_繝__24
 62
     7
100
AcDbLine
 10
-1361.718241536721
 20
581.4069263114037
 30
0.0
 11
-1312.220766853671
 21
630.9044009944702
 31
0.0
  0
LINE
  5
1D2
330
1C3
100
AcDbEntity
  8
_0-1_荳_闊_
  6
繝_繧_繝_繧_繧_繝__24
 62
     7
100
AcDbLine
 10
-1312.220766853671
 20
630.9044009944702
 30
0.0
 11
-1307.978126166551
 21
626.6617603073515
 31
0.0
  0
LINE
  5
1D3
330
1C3
100
AcDbEntity
  8
_0-1_荳_闊_
  6
繝_繧_繝_繧_繧_繝__24
 62
     7
100
AcDbLine
 10
-1307.978126166551
 20
626.6617603073515
 30
0.0
 11
-1357.475600849601
 21
577.164285624285
 31
0.0
  0
LINE
  5
1D4
330
1C3
100
AcDbEntity
  8
_0-1_荳_闊_
  6
繝_繧_繝_繧_繧_繝__24
 62
     7
100
AcDbLine
 10
-1357.475600849601
 20
577.164285624285
 30
0.0
 11
-1361.718241536721
 21
581.4069263114037
 31
0.0
  0
LINE
  5
1D5
330
1C3
100
AcDbEntity
  8
_0-1_荳_闊_
  6
Continuous
 62
     7
100
AcDbLine
 10
-990.6736850241836
 20
263.089113926297
 30
0.0
 11
-993.8556655395231
 21
259.907133410957
 31
0.0
  0
LINE
  5
1D6
330
1C3
100
AcDbEntity
  8
_0-1_荳_闊_
  6
Continuous
 62
     7
100
AcDbLine
 10
-993.8556655395231
 20
259.907133410957
 30
0.0
 11
-1435.855665539649
 21
701.9071334110839
 31
0.0
  0
LINE
  5
1D7
330
1C3
100
AcDbEntity
  8
_0-1_荳_闊_
  6
Continuous
 62
     7
100
AcDbLine
 10
-1435.855665539649
 20
701.9071334110839
 30
0.0
 11
-1432.673685024309
 21
705.089113926423
 31
0.0
  0
LINE
  5
1D8
330
1C3
100
AcDbEntity
  8
_0-1_荳_闊_
  6
Continuous
 62
     7
100
AcDbLine
 10
-1432.673685024309
 20
705.089113926423
 30
0.0
 11
-990.6736850241836
 21
263.089113926297
 31
0.0
  0
LINE
  5
1D9
330
1C3
100
AcDbEntity
  8
_0-1_荳_闊_
  6
Continuous
 62
     7
100
AcDbLine
 10
-1222.871779854524
 20
471.0160190962072
 30
0.0
 11
-1202.57806583827
 21
491.3097331124649
 31
0.0
  0
ENDBLK
  5
1DA
330
1C3
100
AcDbEntity
  8
0
100
AcDbBlockEnd
  0
BLOCK
  5
1DB
330
1DC
100
AcDbEntity
  8
0
100
AcDbBlockBegin
  2
-029-_D31
 70
     0
 10
0.0
 20
0.0
 30
0.0
  3
-029-_D31
  1

  0
LINE
  5
1DD
330
1DC
100
AcDbEntity
  8
_0-8__0-2_蟇_豕__ts
  6
Continuous
 62
     7
100
AcDbLine
 10
-277.999999999996
 20
266.0140702139599
 30
0.0
 11
-212.7294033864615
 21
266.0140702139599
 31
0.0
  0
LINE
  5
1DE
330
1DC
100
AcDbEntity
  8
_0-8__0-2_蟇_豕__ts
  6
Continuous
 62
     7
100
AcDbLine
 10
-271.7281036449323
 20
708.0140702139599
 30
0.0
 11
-212.7294033864615
 21
708.0140702139599
 31
0.0
  0
LINE
  5
1DF
330
1DC
100
AcDbEntity
  8
_0-9__0-2_蟇_豕___2-1
  6
Continuous
 62
     7
100
AcDbLine
 10
-222.7294033864615
 20
272.0137040030224
 30
0.0
 11
-222.7294033864615
 21
702.0144364248974
 31
0.0
  0
INSERT
  5
1E0
330
1DC
100
AcDbEntity
  8
_0-8__0-2_蟇_豕__ts
100
AcDbBlockReference
  2
-000-VW_EMPTYBALL
 10
-222.7294033864615
 20
266.0140702139599
 30
0.0
 41
5.9996337890625
 42
5.9996337890625
 50
270.0
  0
INSERT
  5
1E1
330
1DC
100
AcDbEntity
  8
_0-8__0-2_蟇_豕__ts
100
AcDbBlockReference
  2
-000-VW_EMPTYBALL
 10
-222.7294033864615
 20
708.0140702139599
 30
0.0
 41
5.9996337890625
 42
5.9996337890625
 50
90.0
  0
TEXT
  5
1E2
330
1DC
100
AcDbEntity
  8
_0-8__0-2_蟇_豕__ts
 62
     7
100
AcDbText
 10
-227.7294033864615
 20
468.7361161123973
 30
0.0
 40
24.37060546875
  1
442
 50
90.0
100
AcDbText
  0
POINT
  5
1E3
330
1DC
100
AcDbEntity
  8
_1-0__0-7__0-3_Defpoints
 62
     7
100
AcDbPoint
 10
-287.999999999996
 20
266.0140702139599
 30
0.0
  0
POINT
  5
1E4
330
1DC
100
AcDbEntity
  8
_1-0__0-7__0-3_Defpoints
 62
     7
100
AcDbPoint
 10
-281.7281036449323
 20
708.0140702139599
 30
0.0
  0
POINT
  5
1E5
330
1DC
100
AcDbEntity
  8
_1-0__0-7__0-3_Defpoints
 62
     7
100
AcDbPoint
 10
-222.7294033864615
 20
708.0140702139599
 30
0.0
  0
ENDBLK
  5
1E6
330
1DC
100
AcDbEntity
  8
0
100
AcDbBlockEnd
  0
BLOCK
  5
1E7
330
1E8
100
AcDbEntity
  8
0
100
AcDbBlockBegin
  2
-030-繧_繝_繝_繝__5-1
 70
     0
 10
0.0
 20
0.0
 30
0.0
  3
-030-繧_繝_繝_繝__5-1
  1

  0
LINE
  5
1E9
330
1E8
100
AcDbEntity
  8
_0-1_荳_闊_
  6
Continuous
 62
     7
100
AcDbLine
 10
-998.4624045730356
 20
264.5138724444699
 30
0.0
 11
-993.8556655396496
 21
259.9071334110835
 31
0.0
  0
LINE
  5
1EA
330
1E8
100
AcDbEntity
  8
_0-1_荳_闊_
  6
Continuous
 62
     7
100
AcDbLine
 10
-993.8556655396496
 20
259.9071334110835
 30
0.0
 11
-993.8556655396496
 21
-749.842866588921
 31
0.0
  0
LINE
  5
1EB
330
1E8
100
AcDbEntity
  8
_0-1_荳_闊_
  6
Continuous
 62
     7
100
AcDbLine
 10
-993.8556655396496
 20
-749.842866588921
 30
0.0
 11
-1043.85566553965
 21
-749.842866588921
 31
0.0
  0
LINE
  5
1EC
330
1E8
100
AcDbEntity
  8
_0-1_荳_闊_
  6
Continuous
 62
     7
100
AcDbLine
 10
-1043.85566553965
 20
-749.842866588921
 30
0.0
 11
-1043.85566553965
 21
309.9071334110835
 31
0.0
  0
LINE
  5
1ED
330
1E8
100
AcDbEntity
  8
_0-1_荳_闊_
  6
Continuous
 62
     7
100
AcDbLine
 10
-1043.85566553965
 20
309.9071334110835
 30
0.0
 11
-998.4624045730356
 21
264.5138724444699
 31
0.0
  0
LINE
  5
1EE
330
1E8
100
AcDbEntity
  8
_0-1_荳_闊_
  6
Continuous
 62
     7
100
AcDbLine
 10
-1099.85566553965
 20
365.9071334110835
 30
0.0
 11
-1049.85566553965
 21
315.9071334110835
 31
0.0
  0
LINE
  5
1EF
330
1E8
100
AcDbEntity
  8
_0-1_荳_闊_
  6
Continuous
 62
     7
100
AcDbLine
 10
-1049.85566553965
 20
315.9071334110835
 30
0.0
 11
-1049.85566553965
 21
-749.842866588921
 31
0.0
  0
LINE
  5
1F0
330
1E8
100
AcDbEntity
  8
_0-1_荳_闊_
  6
Continuous
 62
     7
100
AcDbLine
 10
-1049.85566553965
 20
-749.842866588921
 30
0.0
 11
-1099.85566553965
 21
-749.842866588921
 31
0.0
  0
LINE
  5
1F1
330
1E8
100
AcDbEntity
  8
_0-1_荳_闊_
  6
Continuous
 62
     7
100
AcDbLine
 10
-1099.85566553965
 20
-749.842866588921
 30
0.0
 11
-1099.85566553965
 21
365.9071334110835
 31
0.0
  0
LINE
  5
1F2
330
1E8
100
AcDbEntity
  8
_0-1_荳_闊_
  6
Continuous
 62
     7
100
AcDbLine
 10
-1155.85566553965
 20
421.9071334110835
 30
0.0
 11
-1105.85566553965
 21
371.9071334110835
 31
0.0
  0
LINE
  5
1F3
330
1E8
100
AcDbEntity
  8
_0-1_荳_闊_
  6
Continuous
 62
     7
100
AcDbLine
 10
-1105.85566553965
 20
371.9071334110835
 30
0.0
 11
-1105.85566553965
 21
-749.842866588921
 31
0.0
  0
LINE
  5
1F4
330
1E8
100
AcDbEntity
  8
_0-1_荳_闊_
  6
Continuous
 62
     7
100
AcDbLine
 10
-1105.85566553965
 20
-749.842866588921
 30
0.0
 11
-1155.85566553965
 21
-749.842866588921
 31
0.0
  0
LINE
  5
1F5
330
1E8
100
AcDbEntity
  8
_0-1_荳_闊_
  6
Continuous
 62
     7
100
AcDbLine
 10
-1155.85566553965
 20
-749.842866588921
 30
0.0
 11
-1155.85566553965
 21
421.9071334110835
 31
0.0
  0
LINE
  5
1F6
330
1E8
100
AcDbEntity
  8
_0-1_荳_闊_
  6
Continuous
 62
     7
100
AcDbLine
 10
-1211.85566553965
 20
477.9071334110835
 30
0.0
 11
-1161.85566553965
 21
427.9071334110835
 31
0.0
  0
LINE
  5
1F7
330
1E8
100
AcDbEntity
  8
_0-1_荳_闊_
  6
Continuous
 62
     7
100
AcDbLine
 10
-1161.85566553965
 20
427.9071334110835
 30
0.0
 11
-1161.85566553965
 21
-749.842866588921
 31
0.0
  0
LINE
  5
1F8
330
1E8
100
AcDbEntity
  8
_0-1_荳_闊_
  6
Continuous
 62
     7
100
AcDbLine
 10
-1161.85566553965
 20
-749.842866588921
 30
0.0
 11
-1211.85566553965
 21
-749.842866588921
 31
0.0
  0
LINE
  5
1F9
330
1E8
100
AcDbEntity
  8
_0-1_荳_闊_
  6
Continuous
 62
     7
100
AcDbLine
 10
-1211.85566553965
 20
-749.842866588921
 30
0.0
 11
-1211.85566553965
 21
477.9071334110835
 31
0.0
  0
LINE
  5
1FA
330
1E8
100
AcDbEntity
  8
_0-1_荳_闊_
  6
Continuous
 62
     7
100
AcDbLine
 10
-1267.85566553965
 20
533.9071334110843
 30
0.0
 11
-1217.85566553965
 21
483.9071334110835
 31
0.0
  0
LINE
  5
1FB
330
1E8
100
AcDbEntity
  8
_0-1_荳_闊_
  6
Continuous
 62
     7
100
AcDbLine
 10
-1217.85566553965
 20
483.9071334110835
 30
0.0
 11
-1217.85566553965
 21
-749.842866588921
 31
0.0
  0
LINE
  5
1FC
330
1E8
100
AcDbEntity
  8
_0-1_荳_闊_
  6
Continuous
 62
     7
100
AcDbLine
 10
-1217.85566553965
 20
-749.842866588921
 30
0.0
 11
-1267.85566553965
 21
-749.842866588921
 31
0.0
  0
LINE
  5
1FD
330
1E8
100
AcDbEntity
  8
_0-1_荳_闊_
  6
Continuous
 62
     7
100
AcDbLine
 10
-1267.85566553965
 20
-749.842866588921
 30
0.0
 11
-1267.85566553965
 21
533.9071334110843
 31
0.0
  0
LINE
  5
1FE
330
1E8
100
AcDbEntity
  8
_0-1_荳_闊_
  6
Continuous
 62
     7
100
AcDbLine
 10
-1323.85566553965
 20
589.9071334110835
 30
0.0
 11
-1273.85566553965
 21
539.9071334110835
 31
0.0
  0
LINE
  5
1FF
330
1E8
100
AcDbEntity
  8
_0-1_荳_闊_
  6
Continuous
 62
     7
100
AcDbLine
 10
-1273.85566553965
 20
539.9071334110835
 30
0.0
 11
-1273.85566553965
 21
-749.842866588921
 31
0.0
  0
LINE
  5
200
330
1E8
100
AcDbEntity
  8
_0-1_荳_闊_
  6
Continuous
 62
     7
100
AcDbLine
 10
-1273.85566553965
 20
-749.842866588921
 30
0.0
 11
-1323.85566553965
 21
-749.842866588921
 31
0.0
  0
LINE
  5
201
330
1E8
100
AcDbEntity
  8
_0-1_荳_闊_
  6
Continuous
 62
     7
100
AcDbLine
 10
-1323.85566553965
 20
-749.842866588921
 30
0.0
 11
-1323.85566553965
 21
589.9071334110835
 31
0.0
  0
LINE
  5
202
330
1E8
100
AcDbEntity
  8
_0-1_荳_闊_
  6
Continuous
 62
     7
100
AcDbLine
 10
-1379.85566553965
 20
645.9071334110834
 30
0.0
 11
-1329.85566553965
 21
595.9071334110834
 31
0.0
  0
LINE
  5
203
330
1E8
100
AcDbEntity
  8
_0-1_荳_闊_
  6
Continuous
 62
     7
100
AcDbLine
 10
-1329.85566553965
 20
595.9071334110834
 30
0.0
 11
-1329.85566553965
 21
-749.842866588921
 31
0.0
  0
LINE
  5
204
330
1E8
100
AcDbEntity
  8
_0-1_荳_闊_
  6
Continuous
 62
     7
100
AcDbLine
 10
-1329.85566553965
 20
-749.842866588921
 30
0.0
 11
-1379.85566553965
 21
-749.842866588921
 31
0.0
  0
LINE
  5
205
330
1E8
100
AcDbEntity
  8
_0-1_荳_闊_
  6
Continuous
 62
     7
100
AcDbLine
 10
-1379.85566553965
 20
-749.842866588921
 30
0.0
 11
-1379.85566553965
 21
645.9071334110834
 31
0.0
  0
LINE
  5
206
330
1E8
100
AcDbEntity
  8
_0-1_荳_闊_
  6
Continuous
 62
     7
100
AcDbLine
 10
-1435.85566553965
 20
701.9071334110834
 30
0.0
 11
-1385.85566553965
 21
651.9071334110834
 31
0.0
  0
LINE
  5
207
330
1E8
100
AcDbEntity
  8
_0-1_荳_闊_
  6
Continuous
 62
     7
100
AcDbLine
 10
-1385.85566553965
 20
651.9071334110834
 30
0.0
 11
-1385.85566553965
 21
-749.842866588921
 31
0.0
  0
LINE
  5
208
330
1E8
100
AcDbEntity
  8
_0-1_荳_闊_
  6
Continuous
 62
     7
100
AcDbLine
 10
-1385.85566553965
 20
-749.842866588921
 30
0.0
 11
-1435.85566553965
 21
-749.842866588921
 31
0.0
  0
LINE
  5
209
330
1E8
100
AcDbEntity
  8
_0-1_荳_闊_
  6
Continuous
 62
     7
100
AcDbLine
 10
-1435.85566553965
 20
-749.842866588921
 30
0.0
 11
-1435.85566553965
 21
701.9071334110834
 31
0.0
  0
ENDBLK
  5
20A
330
1E8
100
AcDbEntity
  8
0
100
AcDbBlockEnd
  0
BLOCK
  5
20B
330
20C
100
AcDbEntity
  8
0
100
AcDbBlockBegin
  2
-031-繧_繝_繝_繝__6-1
 70
     0
 10
0.0
 20
0.0
 30
0.0
  3
-031-繧_繝_繝_繝__6-1
  1

  0
LINE
  5
20D
330
20C
100
AcDbEntity
  8
_0-1_荳_闊_
  6
Continuous
 62
     7
100
AcDbLine
 10
-995.2804240578206
 20
267.6958529596843
 30
0.0
 11
-990.6736850244355
 21
263.089113926297
 31
0.0
  0
LINE
  5
20E
330
20C
100
AcDbEntity
  8
_0-1_荳_闊_
  6
Continuous
 62
     7
100
AcDbLine
 10
-990.6736850244355
 20
263.089113926297
 30
0.0
 11
19.07631497556895
 21
263.0891139260084
 31
0.0
  0
LINE
  5
20F
330
20C
100
AcDbEntity
  8
_0-1_荳_闊_
  6
Continuous
 62
     7
100
AcDbLine
 10
19.07631497556895
 20
263.0891139260084
 30
0.0
 11
19.07631497558327
 21
313.0891139260083
 31
0.0
  0
LINE
  5
210
330
20C
100
AcDbEntity
  8
_0-1_荳_闊_
  6
Continuous
 62
     7
100
AcDbLine
 10
19.07631497558327
 20
313.0891139260083
 30
0.0
 11
-1040.673685024421
 21
313.0891139263114
 31
0.0
  0
LINE
  5
211
330
20C
100
AcDbEntity
  8
_0-1_荳_闊_
  6
Continuous
 62
     7
100
AcDbLine
 10
-1040.673685024421
 20
313.0891139263114
 30
0.0
 11
-995.2804240578206
 21
267.6958529596843
 31
0.0
  0
LINE
  5
212
330
20C
100
AcDbEntity
  8
_0-1_荳_闊_
  6
Continuous
 62
     7
100
AcDbLine
 10
-1096.673685024405
 20
369.0891139263273
 30
0.0
 11
-1046.67368502442
 21
319.089113926313
 31
0.0
  0
LINE
  5
213
330
20C
100
AcDbEntity
  8
_0-1_荳_闊_
  6
Continuous
 62
     7
100
AcDbLine
 10
-1046.67368502442
 20
319.089113926313
 30
0.0
 11
19.07631497558498
 21
319.0891139260083
 31
0.0
  0
LINE
  5
214
330
20C
100
AcDbEntity
  8
_0-1_荳_闊_
  6
Continuous
 62
     7
100
AcDbLine
 10
19.07631497558498
 20
319.0891139260083
 30
0.0
 11
19.0763149755993
 21
369.0891139260083
 31
0.0
  0
LINE
  5
215
330
20C
100
AcDbEntity
  8
_0-1_荳_闊_
  6
Continuous
 62
     7
100
AcDbLine
 10
19.0763149755993
 20
369.0891139260083
 30
0.0
 11
-1096.673685024405
 21
369.0891139263273
 31
0.0
  0
LINE
  5
216
330
20C
100
AcDbEntity
  8
_0-1_荳_闊_
  6
Continuous
 62
     7
100
AcDbLine
 10
-1152.673685024389
 20
425.0891139263433
 30
0.0
 11
-1102.673685024404
 21
375.0891139263291
 31
0.0
  0
LINE
  5
217
330
20C
100
AcDbEntity
  8
_0-1_荳_闊_
  6
Continuous
 62
     7
100
AcDbLine
 10
-1102.673685024404
 20
375.0891139263291
 30
0.0
 11
19.07631497560101
 21
375.0891139260083
 31
0.0
  0
LINE
  5
218
330
20C
100
AcDbEntity
  8
_0-1_荳_闊_
  6
Continuous
 62
     7
100
AcDbLine
 10
19.07631497560101
 20
375.0891139260083
 30
0.0
 11
19.07631497561533
 21
425.0891139260082
 31
0.0
  0
LINE
  5
219
330
20C
100
AcDbEntity
  8
_0-1_荳_闊_
  6
Continuous
 62
     7
100
AcDbLine
 10
19.07631497561533
 20
425.0891139260082
 30
0.0
 11
-1152.673685024389
 21
425.0891139263433
 31
0.0
  0
LINE
  5
21A
330
20C
100
AcDbEntity
  8
_0-1_荳_闊_
  6
Continuous
 62
     7
100
AcDbLine
 10
-1208.673685024373
 20
481.0891139263593
 30
0.0
 11
-1158.673685024388
 21
431.089113926345
 31
0.0
  0
LINE
  5
21B
330
20C
100
AcDbEntity
  8
_0-1_荳_闊_
  6
Continuous
 62
     7
100
AcDbLine
 10
-1158.673685024388
 20
431.089113926345
 30
0.0
 11
19.07631497561704
 21
431.0891139260083
 31
0.0
  0
LINE
  5
21C
330
20C
100
AcDbEntity
  8
_0-1_荳_闊_
  6
Continuous
 62
     7
100
AcDbLine
 10
19.07631497561704
 20
431.0891139260083
 30
0.0
 11
19.07631497563125
 21
481.0891139260083
 31
0.0
  0
LINE
  5
21D
330
20C
100
AcDbEntity
  8
_0-1_荳_闊_
  6
Continuous
 62
     7
100
AcDbLine
 10
19.07631497563125
 20
481.0891139260083
 30
0.0
 11
-1208.673685024373
 21
481.0891139263593
 31
0.0
  0
LINE
  5
21E
330
20C
100
AcDbEntity
  8
_0-1_荳_闊_
  6
Continuous
 62
     7
100
AcDbLine
 10
-1264.673685024358
 20
537.0891139263752
 30
0.0
 11
-1214.673685024371
 21
487.0891139263608
 31
0.0
  0
LINE
  5
21F
330
20C
100
AcDbEntity
  8
_0-1_荳_闊_
  6
Continuous
 62
     7
100
AcDbLine
 10
-1214.673685024371
 20
487.0891139263608
 30
0.0
 11
19.07631497563295
 21
487.0891139260082
 31
0.0
  0
LINE
  5
220
330
20C
100
AcDbEntity
  8
_0-1_荳_闊_
  6
Continuous
 62
     7
100
AcDbLine
 10
19.07631497563295
 20
487.0891139260082
 30
0.0
 11
19.07631497564728
 21
537.0891139260082
 31
0.0
  0
LINE
  5
221
330
20C
100
AcDbEntity
  8
_0-1_荳_闊_
  6
Continuous
 62
     7
100
AcDbLine
 10
19.07631497564728
 20
537.0891139260082
 30
0.0
 11
-1264.673685024358
 21
537.0891139263752
 31
0.0
  0
LINE
  5
222
330
20C
100
AcDbEntity
  8
_0-1_荳_闊_
  6
Continuous
 62
     7
100
AcDbLine
 10
-1320.673685024341
 20
593.0891139263914
 30
0.0
 11
-1270.673685024356
 21
543.0891139263771
 31
0.0
  0
LINE
  5
223
330
20C
100
AcDbEntity
  8
_0-1_荳_闊_
  6
Continuous
 62
     7
100
AcDbLine
 10
-1270.673685024356
 20
543.0891139263771
 30
0.0
 11
19.07631497564898
 21
543.0891139260082
 31
0.0
  0
LINE
  5
224
330
20C
100
AcDbEntity
  8
_0-1_荳_闊_
  6
Continuous
 62
     7
100
AcDbLine
 10
19.07631497564898
 20
543.0891139260082
 30
0.0
 11
19.07631497566331
 21
593.0891139260082
 31
0.0
  0
LINE
  5
225
330
20C
100
AcDbEntity
  8
_0-1_荳_闊_
  6
Continuous
 62
     7
100
AcDbLine
 10
19.07631497566331
 20
593.0891139260082
 30
0.0
 11
-1320.673685024341
 21
593.0891139263914
 31
0.0
  0
LINE
  5
226
330
20C
100
AcDbEntity
  8
_0-1_荳_闊_
  6
Continuous
 62
     7
100
AcDbLine
 10
-1376.673685024325
 20
649.0891139264073
 30
0.0
 11
-1326.67368502434
 21
599.0891139263929
 31
0.0
  0
LINE
  5
227
330
20C
100
AcDbEntity
  8
_0-1_荳_闊_
  6
Continuous
 62
     7
100
AcDbLine
 10
-1326.67368502434
 20
599.0891139263929
 30
0.0
 11
19.07631497566501
 21
599.0891139260082
 31
0.0
  0
LINE
  5
228
330
20C
100
AcDbEntity
  8
_0-1_荳_闊_
  6
Continuous
 62
     7
100
AcDbLine
 10
19.07631497566501
 20
599.0891139260082
 30
0.0
 11
19.07631497567934
 21
649.0891139260082
 31
0.0
  0
LINE
  5
229
330
20C
100
AcDbEntity
  8
_0-1_荳_闊_
  6
Continuous
 62
     7
100
AcDbLine
 10
19.07631497567934
 20
649.0891139260082
 30
0.0
 11
-1376.673685024325
 21
649.0891139264073
 31
0.0
  0
LINE
  5
22A
330
20C
100
AcDbEntity
  8
_0-1_荳_闊_
  6
Continuous
 62
     7
100
AcDbLine
 10
-1432.673685024309
 20
705.0891139264232
 30
0.0
 11
-1382.673685024324
 21
655.0891139264091
 31
0.0
  0
LINE
  5
22B
330
20C
100
AcDbEntity
  8
_0-1_荳_闊_
  6
Continuous
 62
     7
100
AcDbLine
 10
-1382.673685024324
 20
655.0891139264091
 30
0.0
 11
19.07631497568104
 21
655.0891139260082
 31
0.0
  0
LINE
  5
22C
330
20C
100
AcDbEntity
  8
_0-1_荳_闊_
  6
Continuous
 62
     7
100
AcDbLine
 10
19.07631497568104
 20
655.0891139260082
 30
0.0
 11
19.07631497569537
 21
705.0891139260082
 31
0.0
  0
LINE
  5
22D
330
20C
100
AcDbEntity
  8
_0-1_荳_闊_
  6
Continuous
 62
     7
100
AcDbLine
 10
19.07631497569537
 20
705.0891139260082
 30
0.0
 11
-1432.673685024309
 21
705.0891139264232
 31
0.0
  0
ENDBLK
  5
22E
330
20C
100
AcDbEntity
  8
0
100
AcDbBlockEnd
  0
BLOCK
  5
22F
330
230
100
AcDbEntity
  8
0
100
AcDbBlockBegin
  2
-032-繧_繝_繝_繝__7-1
 70
     0
 10
0.0
 20
0.0
 30
0.0
  3
-032-繧_繝_繝_繝__7-1
  1

  0
LINE
  5
231
330
230
100
AcDbEntity
  8
_0-1_荳_闊_
  6
繝_繧_繝_繧_繧_繝__24
 62
     7
100
AcDbLine
 10
919.4711826486329
 20
263.0891139264693
 30
0.0
 11
919.4711826486329
 21
313.0891139264693
 31
0.0
  0
LINE
  5
232
330
230
100
AcDbEntity
  8
_0-1_荳_闊_
  6
繝_繧_繝_繧_繧_繝__24
 62
     7
100
AcDbLine
 10
919.4711826486329
 20
313.0891139264693
 30
0.0
 11
949.4711826486328
 21
313.0891139264693
 31
0.0
  0
LINE
  5
233
330
230
100
AcDbEntity
  8
_0-1_荳_闊_
  6
繝_繧_繝_繧_繧_繝__24
 62
     7
100
AcDbLine
 10
949.4711826486328
 20
313.0891139264693
 30
0.0
 11
949.4711826486328
 21
263.0891139264693
 31
0.0
  0
LINE
  5
234
330
230
100
AcDbEntity
  8
_0-1_荳_闊_
  6
繝_繧_繝_繧_繧_繝__24
 62
     7
100
AcDbLine
 10
949.4711826486328
 20
263.0891139264693
 30
0.0
 11
919.4711826486329
 21
263.0891139264693
 31
0.0
  0
LINE
  5
235
330
230
100
AcDbEntity
  8
_0-1_荳_闊_
  6
繝_繧_繝_繧_繧_繝__24
 62
     7
100
AcDbLine
 10
919.4711826486329
 20
319.0891139264693
 30
0.0
 11
919.4711826486329
 21
369.0891139264693
 31
0.0
  0
LINE
  5
236
330
230
100
AcDbEntity
  8
_0-1_荳_闊_
  6
繝_繧_繝_繧_繧_繝__24
 62
     7
100
AcDbLine
 10
919.4711826486329
 20
369.0891139264693
 30
0.0
 11
949.4711826486328
 21
369.0891139264693
 31
0.0
  0
LINE
  5
237
330
230
100
AcDbEntity
  8
_0-1_荳_闊_
  6
繝_繧_繝_繧_繧_繝__24
 62
     7
100
AcDbLine
 10
949.4711826486328
 20
369.0891139264693
 30
0.0
 11
949.4711826486328
 21
319.0891139264693
 31
0.0
  0
LINE
  5
238
330
230
100
AcDbEntity
  8
_0-1_荳_闊_
  6
繝_繧_繝_繧_繧_繝__24
 62
     7
100
AcDbLine
 10
949.4711826486328
 20
319.0891139264693
 30
0.0
 11
919.4711826486329
 21
319.0891139264693
 31
0.0
  0
LINE
  5
239
330
230
100
AcDbEntity
  8
_0-1_荳_闊_
  6
繝_繧_繝_繧_繧_繝__24
 62
     7
100
AcDbLine
 10
919.4711826486329
 20
375.0891139264693
 30
0.0
 11
919.4711826486329
 21
425.0891139264693
 31
0.0
  0
LINE
  5
23A
330
230
100
AcDbEntity
  8
_0-1_荳_闊_
  6
繝_繧_繝_繧_繧_繝__24
 62
     7
100
AcDbLine
 10
919.4711826486329
 20
425.0891139264693
 30
0.0
 11
949.4711826486328
 21
425.0891139264693
 31
0.0
  0
LINE
  5
23B
330
230
100
AcDbEntity
  8
_0-1_荳_闊_
  6
繝_繧_繝_繧_繧_繝__24
 62
     7
100
AcDbLine
 10
949.4711826486328
 20
425.0891139264693
 30
0.0
 11
949.4711826486328
 21
375.0891139264693
 31
0.0
  0
LINE
  5
23C
330
230
100
AcDbEntity
  8
_0-1_荳_闊_
  6
繝_繧_繝_繧_繧_繝__24
 62
     7
100
AcDbLine
 10
949.4711826486328
 20
375.0891139264693
 30
0.0
 11
919.4711826486329
 21
375.0891139264693
 31
0.0
  0
LINE
  5
23D
330
230
100
AcDbEntity
  8
_0-1_荳_闊_
  6
繝_繧_繝_繧_繧_繝__24
 62
     7
100
AcDbLine
 10
919.4711826486329
 20
431.0891139264692
 30
0.0
 11
919.4711826486329
 21
481.0891139264692
 31
0.0
  0
LINE
  5
23E
330
230
100
AcDbEntity
  8
_0-1_荳_闊_
  6
繝_繧_繝_繧_繧_繝__24
 62
     7
100
AcDbLine
 10
919.4711826486329
 20
481.0891139264692
 30
0.0
 11
949.4711826486328
 21
481.0891139264692
 31
0.0
  0
LINE
  5
23F
330
230
100
AcDbEntity
  8
_0-1_荳_闊_
  6
繝_繧_繝_繧_繧_繝__24
 62
     7
100
AcDbLine
 10
949.4711826486328
 20
481.0891139264692
 30
0.0
 11
949.4711826486328
 21
431.0891139264692
 31
0.0
  0
LINE
  5
240
330
230
100
AcDbEntity
  8
_0-1_荳_闊_
  6
繝_繧_繝_繧_繧_繝__24
 62
     7
100
AcDbLine
 10
949.4711826486328
 20
431.0891139264692
 30
0.0
 11
919.4711826486329
 21
431.0891139264692
 31
0.0
  0
LINE
  5
241
330
230
100
AcDbEntity
  8
_0-1_荳_闊_
  6
繝_繧_繝_繧_繧_繝__24
 62
     7
100
AcDbLine
 10
919.4711826486329
 20
487.0891139264692
 30
0.0
 11
919.4711826486329
 21
537.0891139264692
 31
0.0
  0
LINE
  5
242
330
230
100
AcDbEntity
  8
_0-1_荳_闊_
  6
繝_繧_繝_繧_繧_繝__24
 62
     7
100
AcDbLine
 10
919.4711826486329
 20
537.0891139264692
 30
0.0
 11
949.4711826486328
 21
537.0891139264692
 31
0.0
  0
LINE
  5
243
330
230
100
AcDbEntity
  8
_0-1_荳_闊_
  6
繝_繧_繝_繧_繧_繝__24
 62
     7
100
AcDbLine
 10
949.4711826486328
 20
537.0891139264692
 30
0.0
 11
949.4711826486328
 21
487.0891139264692
 31
0.0
  0
LINE
  5
244
330
230
100
AcDbEntity
  8
_0-1_荳_闊_
  6
繝_繧_繝_繧_繧_繝__24
 62
     7
100
AcDbLine
 10
949.4711826486328
 20
487.0891139264692
 30
0.0
 11
919.4711826486329
 21
487.0891139264692
 31
0.0
  0
LINE
  5
245
330
230
100
AcDbEntity
  8
_0-1_荳_闊_
  6
繝_繧_繝_繧_繧_繝__24
 62
     7
100
AcDbLine
 10
919.4711826486329
 20
543.0891139264693
 30
0.0
 11
919.4711826486329
 21
593.0891139264693
 31
0.0
  0
LINE
  5
246
330
230
100
AcDbEntity
  8
_0-1_荳_闊_
  6
繝_繧_繝_繧_繧_繝__24
 62
     7
100
AcDbLine
 10
919.4711826486329
 20
593.0891139264693
 30
0.0
 11
949.4711826486328
 21
593.0891139264693
 31
0.0
  0
LINE
  5
247
330
230
100
AcDbEntity
  8
_0-1_荳_闊_
  6
繝_繧_繝_繧_繧_繝__24
 62
     7
100
AcDbLine
 10
949.4711826486328
 20
593.0891139264693
 30
0.0
 11
949.4711826486328
 21
543.0891139264693
 31
0.0
  0
LINE
  5
248
330
230
100
AcDbEntity
  8
_0-1_荳_闊_
  6
繝_繧_繝_繧_繧_繝__24
 62
     7
100
AcDbLine
 10
949.4711826486328
 20
543.0891139264693
 30
0.0
 11
919.4711826486329
 21
543.0891139264693
 31
0.0
  0
LINE
  5
249
330
230
100
AcDbEntity
  8
_0-1_荳_闊_
  6
繝_繧_繝_繧_繧_繝__24
 62
     7
100
AcDbLine
 10
919.4711826486329
 20
599.0891139264692
 30
0.0
 11
919.4711826486329
 21
649.0891139264692
 31
0.0
  0
LINE
  5
24A
330
230
100
AcDbEntity
  8
_0-1_荳_闊_
  6
繝_繧_繝_繧_繧_繝__24
 62
     7
100
AcDbLine
 10
919.4711826486329
 20
649.0891139264692
 30
0.0
 11
949.4711826486328
 21
649.0891139264692
 31
0.0
  0
LINE
  5
24B
330
230
100
AcDbEntity
  8
_0-1_荳_闊_
  6
繝_繧_繝_繧_繧_繝__24
 62
     7
100
AcDbLine
 10
949.4711826486328
 20
649.0891139264692
 30
0.0
 11
949.4711826486328
 21
599.0891139264692
 31
0.0
  0
LINE
  5
24C
330
230
100
AcDbEntity
  8
_0-1_荳_闊_
  6
繝_繧_繝_繧_繧_繝__24
 62
     7
100
AcDbLine
 10
949.4711826486328
 20
599.0891139264692
 30
0.0
 11
919.4711826486329
 21
599.0891139264692
 31
0.0
  0
LINE
  5
24D
330
230
100
AcDbEntity
  8
_0-1_荳_闊_
  6
繝_繧_繝_繧_繧_繝__24
 62
     7
100
AcDbLine
 10
919.4711826486329
 20
655.0891139264693
 30
0.0
 11
919.4711826486329
 21
705.0891139264693
 31
0.0
  0
LINE
  5
24E
330
230
100
AcDbEntity
  8
_0-1_荳_闊_
  6
繝_繧_繝_繧_繧_繝__24
 62
     7
100
AcDbLine
 10
919.4711826486329
 20
705.0891139264693
 30
0.0
 11
949.4711826486328
 21
705.0891139264693
 31
0.0
  0
LINE
  5
24F
330
230
100
AcDbEntity
  8
_0-1_荳_闊_
  6
繝_繧_繝_繧_繧_繝__24
 62
     7
100
AcDbLine
 10
949.4711826486328
 20
705.0891139264693
 30
0.0
 11
949.4711826486328
 21
655.0891139264693
 31
0.0
  0
LINE
  5
250
330
230
100
AcDbEntity
  8
_0-1_荳_闊_
  6
繝_繧_繝_繧_繧_繝__24
 62
     7
100
AcDbLine
 10
949.4711826486328
 20
655.0891139264693
 30
0.0
 11
919.4711826486329
 21
655.0891139264693
 31
0.0
  0
ENDBLK
  5
251
330
230
100
AcDbEntity
  8
0
100
AcDbBlockEnd
  0
BLOCK
  5
252
330
253
100
AcDbEntity
  8
0
100
AcDbBlockBegin
  2
-033-_D35
 70
     0
 10
0.0
 20
0.0
 30
0.0
  3
-033-_D35
  1

  0
LINE
  5
254
330
253
100
AcDbEntity
  8
_0-a__0-2_蟇_豕___6-1
  6
Continuous
 62
     7
100
AcDbLine
 10
-1430.909592817475
 20
718.0140702139549
 30
0.0
 11
-1430.909592817475
 21
856.1136795708417
 31
0.0
  0
LINE
  5
255
330
253
100
AcDbEntity
  8
_0-b__0-2_蟇_豕___7-1
  6
Continuous
 62
     7
100
AcDbLine
 10
-1434.091573332815
 20
714.8320896986144
 30
0.0
 11
-1434.091573332815
 21
856.1136795708417
 31
0.0
  0
LINE
  5
256
330
253
100
AcDbEntity
  8
_0-b__0-2_蟇_豕___7-1
  6
Continuous
 62
     7
100
AcDbLine
 10
-1430.909592817475
 20
846.1136795708416
 30
0.0
 11
-1434.091573332815
 21
846.1136795708416
 31
0.0
  0
LINE
  5
257
330
253
100
AcDbEntity
  8
_0-8__0-2_蟇_豕__ts
  6
Continuous
 62
     7
100
AcDbLine
 10
-1424.909959028412
 20
846.1136795708416
 30
0.0
 11
-1418.91032523935
 21
846.1136795708416
 31
0.0
  0
LINE
  5
258
330
253
100
AcDbEntity
  8
_0-8__0-2_蟇_豕__ts
  6
Continuous
 62
     7
100
AcDbLine
 10
-1440.091207121877
 20
846.1136795708416
 30
0.0
 11
-1446.09084091094
 21
846.1136795708416
 31
0.0
  0
INSERT
  5
259
330
253
100
AcDbEntity
  8
_0-8__0-2_蟇_豕__ts
100
AcDbBlockReference
  2
-000-VW_EMPTYBALL
 10
-1430.909592817475
 20
846.1136795708416
 30
0.0
 41
5.9996337890625
 42
5.9996337890625
 50
180.0
  0
INSERT
  5
25A
330
253
100
AcDbEntity
  8
_0-2_蟇_豕__
100
AcDbBlockReference
  2
-000-VW_EMPTYBALL
 10
-1434.091573332815
 20
846.1136795708416
 30
0.0
 41
5.9996337890625
 42
5.9996337890625
  0
TEXT
  5
25B
330
253
100
AcDbEntity
  8
_0-a__0-2_蟇_豕___6-1
 62
     7
100
AcDbText
 10
-1453.232654486006
 20
853.5784441467653
 30
0.0
 40
24.37060546875
  1
3
100
AcDbText
  0
POINT
  5
25C
330
253
100
AcDbEntity
  8
_1-0__0-7__0-3_Defpoints
 62
     7
100
AcDbPoint
 10
-1430.909592817475
 20
708.0140702139549
 30
0.0
  0
POINT
  5
25D
330
253
100
AcDbEntity
  8
_1-0__0-7__0-3_Defpoints
 62
     7
100
AcDbPoint
 10
-1434.091573332815
 20
704.8320896986145
 30
0.0
  0
POINT
  5
25E
330
253
100
AcDbEntity
  8
_1-0__0-7__0-3_Defpoints
 62
     7
100
AcDbPoint
 10
-1434.091573332815
 20
846.1136795708416
 30
0.0
  0
ENDBLK
  5
25F
330
253
100
AcDbEntity
  8
0
100
AcDbBlockEnd
  0
BLOCK
  5
260
330
261
100
AcDbEntity
  8
0
100
AcDbBlockBegin
  2
-034-_D36
 70
     0
 10
0.0
 20
0.0
 30
0.0
  3
-034-_D36
  1

  0
LINE
  5
262
330
261
100
AcDbEntity
  8
_0-8__0-2_蟇_豕__ts
  6
Continuous
 62
     7
100
AcDbLine
 10
73.59040718252463
 20
747.0140702140006
 30
0.0
 11
73.59040718252458
 21
856.1136795708421
 31
0.0
  0
LINE
  5
263
330
261
100
AcDbEntity
  8
_0-2_蟇_豕__
  6
Continuous
 62
     7
100
AcDbLine
 10
-1430.909592817475
 20
718.0140702139549
 30
0.0
 11
-1430.909592817475
 21
856.1136795708421
 31
0.0
  0
LINE
  5
264
330
261
100
AcDbEntity
  8
_0-8__0-2_蟇_豕__ts
  6
Continuous
 62
     7
100
AcDbLine
 10
67.59077339346209
 20
846.1136795708421
 30
0.0
 11
-1424.909959028412
 21
846.1136795708421
 31
0.0
  0
INSERT
  5
265
330
261
100
AcDbEntity
  8
_0-8__0-2_蟇_豕__ts
100
AcDbBlockReference
  2
-000-VW_EMPTYBALL
 10
73.59040718252458
 20
846.1136795708421
 30
0.0
 41
5.9996337890625
 42
5.9996337890625
  0
INSERT
  5
266
330
261
100
AcDbEntity
  8
_0-8__0-2_蟇_豕__ts
100
AcDbBlockReference
  2
-000-VW_EMPTYBALL
 10
-1430.909592817475
 20
846.1136795708421
 30
0.0
 41
5.9996337890625
 42
5.9996337890625
 50
180.0
  0
TEXT
  5
267
330
261
100
AcDbEntity
  8
_0-9__0-2_蟇_豕___2-1
 62
     7
100
AcDbText
 10
-715.2155010206001
 20
851.113679570842
 30
0.0
 40
24.37060546875
  1
1504.5
100
AcDbText
  0
POINT
  5
268
330
261
100
AcDbEntity
  8
_1-0__0-7__0-3_Defpoints
 62
     7
100
AcDbPoint
 10
73.59040718252463
 20
737.0140702140006
 30
0.0
  0
POINT
  5
269
330
261
100
AcDbEntity
  8
_1-0__0-7__0-3_Defpoints
 62
     7
100
AcDbPoint
 10
-1430.909592817475
 20
708.0140702139549
 30
0.0
  0
POINT
  5
26A
330
261
100
AcDbEntity
  8
_1-0__0-7__0-3_Defpoints
 62
     7
100
AcDbPoint
 10
-1430.909592817475
 20
846.1136795708421
 30
0.0
  0
ENDBLK
  5
26B
330
261
100
AcDbEntity
  8
0
100
AcDbBlockEnd
  0
BLOCK
  5
26C
330
26D
100
AcDbEntity
  8
0
100
AcDbBlockBegin
  2
-035-_D37
 70
     0
 10
0.0
 20
0.0
 30
0.0
  3
-035-_D37
  1

  0
LINE
  5
26E
330
26D
100
AcDbEntity
  8
_0-8__0-2_蟇_豕__ts
  6
Continuous
 62
     7
100
AcDbLine
 10
140.8404071825297
 20
747.0140702142027
 30
0.0
 11
140.8404071825296
 21
944.1596983867746
 31
0.0
  0
LINE
  5
26F
330
26D
100
AcDbEntity
  8
_0-8__0-2_蟇_豕__ts
  6
Continuous
 62
     7
100
AcDbLine
 10
-1434.091573332815
 20
714.8320896986144
 30
0.0
 11
-1434.091573332815
 21
944.1596983867746
 31
0.0
  0
LINE
  5
270
330
26D
100
AcDbEntity
  8
_0-8__0-2_蟇_豕__ts
  6
Continuous
 62
     7
100
AcDbLine
 10
134.8407733934671
 20
934.1596983867745
 30
0.0
 11
-1428.091939543752
 21
934.1596983867745
 31
0.0
  0
INSERT
  5
271
330
26D
100
AcDbEntity
  8
_0-8__0-2_蟇_豕__ts
100
AcDbBlockReference
  2
-000-VW_EMPTYBALL
 10
140.8404071825296
 20
934.1596983867745
 30
0.0
 41
5.9996337890625
 42
5.9996337890625
  0
INSERT
  5
272
330
26D
100
AcDbEntity
  8
_0-8__0-2_蟇_豕__ts
100
AcDbBlockReference
  2
-000-VW_EMPTYBALL
 10
-1434.091573332815
 20
934.1596983867745
 30
0.0
 41
5.9996337890625
 42
5.9996337890625
 50
180.0
  0
TEXT
  5
273
330
26D
100
AcDbEntity
  8
_0-2_蟇_豕__
 62
     7
100
AcDbText
 10
-670.9961885438927
 20
939.1596983867746
 30
0.0
 40
24.37060546875
  1
1575
100
AcDbText
  0
POINT
  5
274
330
26D
100
AcDbEntity
  8
_1-0__0-7__0-3_Defpoints
 62
     7
100
AcDbPoint
 10
140.8404071825297
 20
737.0140702142028
 30
0.0
  0
POINT
  5
275
330
26D
100
AcDbEntity
  8
_1-0__0-7__0-3_Defpoints
 62
     7
100
AcDbPoint
 10
-1434.091573332815
 20
704.8320896986145
 30
0.0
  0
POINT
  5
276
330
26D
100
AcDbEntity
  8
_1-0__0-7__0-3_Defpoints
 62
     7
100
AcDbPoint
 10
-1434.091573332815
 20
934.1596983867745
 30
0.0
  0
ENDBLK
  5
277
330
26D
100
AcDbEntity
  8
0
100
AcDbBlockEnd
  0
BLOCK
  5
278
330
279
100
AcDbEntity
  8
0
100
AcDbBlockBegin
  2
-036-_D38
 70
     0
 10
0.0
 20
0.0
 30
0.0
  3
-036-_D38
  1

  0
LINE
  5
27A
330
279
100
AcDbEntity
  8
_0-8__0-2_蟇_豕__ts
  6
Continuous
 62
     7
100
AcDbLine
 10
-982.0915733326888
 20
262.8320896984881
 30
0.0
 11
-890.2359077931658
 21
262.8320896984882
 31
0.0
  0
LINE
  5
27B
330
279
100
AcDbEntity
  8
_0-8__0-2_蟇_豕__ts
  6
Continuous
 62
     7
100
AcDbLine
 10
-982.1621577931658
 20
-799.6679103013851
 30
0.0
 11
-890.2359077931656
 21
-799.6679103013849
 31
0.0
  0
LINE
  5
27C
330
279
100
AcDbEntity
  8
_0-8__0-2_蟇_豕__ts
  6
Continuous
 62
     7
100
AcDbLine
 10
-900.2359077931657
 20
256.8324559094257
 30
0.0
 11
-900.2359077931656
 21
-793.6682765123224
 31
0.0
  0
INSERT
  5
27D
330
279
100
AcDbEntity
  8
_0-8__0-2_蟇_豕__ts
100
AcDbBlockReference
  2
-000-VW_EMPTYBALL
 10
-900.2359077931657
 20
262.8320896984882
 30
0.0
 41
5.9996337890625
 42
5.9996337890625
 50
90.0
  0
INSERT
  5
27E
330
279
100
AcDbEntity
  8
_0-8__0-2_蟇_豕__ts
100
AcDbBlockReference
  2
-000-VW_EMPTYBALL
 10
-900.2359077931656
 20
-799.6679103013849
 30
0.0
 41
5.9996337890625
 42
5.9996337890625
 50
270.0
  0
TEXT
  5
27F
330
279
100
AcDbEntity
  8
_0-8__0-2_蟇_豕__ts
 62
     7
100
AcDbText
 10
-905.2359077931658
 20
-292.7885157701984
 30
0.0
 40
24.37060546875
  1
1062
 50
90.0
100
AcDbText
  0
POINT
  5
280
330
279
100
AcDbEntity
  8
_1-0__0-7__0-3_Defpoints
 62
     7
100
AcDbPoint
 10
-992.0915733326889
 20
262.8320896984881
 30
0.0
  0
POINT
  5
281
330
279
100
AcDbEntity
  8
_1-0__0-7__0-3_Defpoints
 62
     7
100
AcDbPoint
 10
-992.1621577931658
 20
-799.6679103013851
 30
0.0
  0
POINT
  5
282
330
279
100
AcDbEntity
  8
_1-0__0-7__0-3_Defpoints
 62
     7
100
AcDbPoint
 10
-900.2359077931656
 20
-799.6679103013849
 30
0.0
  0
ENDBLK
  5
283
330
279
100
AcDbEntity
  8
0
100
AcDbBlockEnd
  0
BLOCK
  5
284
330
285
100
AcDbEntity
  8
0
100
AcDbBlockBegin
  2
-037-_D39
 70
     0
 10
0.0
 20
0.0
 30
0.0
  3
-037-_D39
  1

  0
LINE
  5
286
330
285
100
AcDbEntity
  8
_0-2_蟇_豕__
  6
Continuous
 62
     7
100
AcDbLine
 10
-982.0915733326888
 20
262.8320896984881
 30
0.0
 11
-890.2359077931656
 21
262.8320896984881
 31
0.0
  0
LINE
  5
287
330
285
100
AcDbEntity
  8
_0-8__0-2_蟇_豕__ts
  6
Continuous
 62
     7
100
AcDbLine
 10
-978.9095928173493
 20
266.0140702138281
 30
0.0
 11
-890.2359077931656
 21
266.0140702138281
 31
0.0
  0
LINE
  5
288
330
285
100
AcDbEntity
  8
_0-2_蟇_豕__
  6
Continuous
 62
     7
100
AcDbLine
 10
-900.2359077931656
 20
262.8320896984881
 30
0.0
 11
-900.2359077931656
 21
266.0140702138281
 31
0.0
  0
LINE
  5
289
330
285
100
AcDbEntity
  8
_0-8__0-2_蟇_豕__ts
  6
Continuous
 62
     7
100
AcDbLine
 10
-900.2359077931656
 20
256.8324559094256
 30
0.0
 11
-900.2359077931656
 21
250.8328221203631
 31
0.0
  0
LINE
  5
28A
330
285
100
AcDbEntity
  8
_0-2_蟇_豕__
  6
Continuous
 62
     7
100
AcDbLine
 10
-900.2359077931656
 20
272.0137040028906
 30
0.0
 11
-900.2359077931656
 21
278.0133377919531
 31
0.0
  0
INSERT
  5
28B
330
285
100
AcDbEntity
  8
_0-8__0-2_蟇_豕__ts
100
AcDbBlockReference
  2
-000-VW_EMPTYBALL
 10
-900.2359077931656
 20
262.8320896984881
 30
0.0
 41
5.9996337890625
 42
5.9996337890625
 50
90.0
  0
INSERT
  5
28C
330
285
100
AcDbEntity
  8
_0-8__0-2_蟇_豕__ts
100
AcDbBlockReference
  2
-000-VW_EMPTYBALL
 10
-900.2359077931656
 20
266.0140702138281
 30
0.0
 41
5.9996337890625
 42
5.9996337890625
 50
270.0
  0
TEXT
  5
28D
330
285
100
AcDbEntity
  8
_0-8__0-2_蟇_豕__ts
 62
     7
100
AcDbText
 10
-905.2359077931656
 20
258.3304285889706
 30
0.0
 40
24.37060546875
  1
3
 50
90.0
100
AcDbText
  0
POINT
  5
28E
330
285
100
AcDbEntity
  8
_1-0__0-7__0-3_Defpoints
 62
     7
100
AcDbPoint
 10
-992.0915733326889
 20
262.8320896984881
 30
0.0
  0
POINT
  5
28F
330
285
100
AcDbEntity
  8
_1-0__0-7__0-3_Defpoints
 62
     7
100
AcDbPoint
 10
-988.9095928173492
 20
266.0140702138281
 30
0.0
  0
POINT
  5
290
330
285
100
AcDbEntity
  8
_1-0__0-7__0-3_Defpoints
 62
     7
100
AcDbPoint
 10
-900.2359077931656
 20
266.0140702138281
 30
0.0
  0
ENDBLK
  5
291
330
285
100
AcDbEntity
  8
0
100
AcDbBlockEnd
  0
BLOCK
  5
292
330
293
100
AcDbEntity
  8
0
100
AcDbBlockBegin
  2
-038-_D40
 70
     0
 10
0.0
 20
0.0
 30
0.0
  3
-038-_D40
  1

  0
LINE
  5
294
330
293
100
AcDbEntity
  8
_0-8__0-2_蟇_豕__ts
  6
Continuous
 62
     7
100
AcDbLine
 10
140.8404071825306
 20
227.0140702140004
 30
0.0
 11
140.8404071825306
 21
117.9144608571228
 31
0.0
  0
LINE
  5
295
330
293
100
AcDbEntity
  8
_0-8__0-2_蟇_豕__ts
  6
Continuous
 62
     7
100
AcDbLine
 10
20.8404071825306
 20
227.0140702140004
 30
0.0
 11
20.8404071825306
 21
117.9144608571228
 31
0.0
  0
LINE
  5
296
330
293
100
AcDbEntity
  8
_0-8__0-2_蟇_豕__ts
  6
Continuous
 62
     7
100
AcDbLine
 10
134.8407733934681
 20
127.9144608571228
 30
0.0
 11
26.8400409715931
 21
127.9144608571228
 31
0.0
  0
INSERT
  5
297
330
293
100
AcDbEntity
  8
_0-8__0-2_蟇_豕__ts
100
AcDbBlockReference
  2
-000-VW_EMPTYBALL
 10
140.8404071825306
 20
127.9144608571228
 30
0.0
 41
5.9996337890625
 42
5.9996337890625
  0
INSERT
  5
298
330
293
100
AcDbEntity
  8
_0-8__0-2_蟇_豕__ts
100
AcDbBlockReference
  2
-000-VW_EMPTYBALL
 10
20.8404071825306
 20
127.9144608571228
 30
0.0
 41
5.9996337890625
 42
5.9996337890625
 50
180.0
  0
TEXT
  5
299
330
293
100
AcDbEntity
  8
_0-8__0-2_蟇_豕__ts
 62
     7
100
AcDbText
 10
62.56245308096808
 20
132.9144608571228
 30
0.0
 40
24.37060546875
  1
120
100
AcDbText
  0
POINT
  5
29A
330
293
100
AcDbEntity
  8
_1-0__0-7__0-3_Defpoints
 62
     7
100
AcDbPoint
 10
140.8404071825306
 20
237.0140702140004
 30
0.0
  0
POINT
  5
29B
330
293
100
AcDbEntity
  8
_1-0__0-7__0-3_Defpoints
 62
     7
100
AcDbPoint
 10
20.8404071825306
 20
237.0140702140004
 30
0.0
  0
POINT
  5
29C
330
293
100
AcDbEntity
  8
_1-0__0-7__0-3_Defpoints
 62
     7
100
AcDbPoint
 10
20.8404071825306
 20
127.9144608571228
 30
0.0
  0
ENDBLK
  5
29D
330
293
100
AcDbEntity
  8
0
100
AcDbBlockEnd
  0
BLOCK
  5
29E
330
29F
100
AcDbEntity
  8
0
100
AcDbBlockBegin
  2
-041-_D43
 70
     0
 10
0.0
 20
0.0
 30
0.0
  3
-041-_D43
  1

  0
LINE
  5
2A0
330
29F
100
AcDbEntity
  8
_0-2_蟇_豕__
  6
Continuous
 62
     7
100
AcDbLine
 10
-1473.091573332862
 20
-799.6679103013869
 30
0.0
 11
-1582.191182689458
 21
-799.6679103014048
 31
0.0
  0
LINE
  5
2A1
330
29F
100
AcDbEntity
  8
_0-8__0-2_蟇_豕__ts
  6
Continuous
 62
     7
100
AcDbLine
 10
-1444.091573332816
 20
704.8320896986123
 30
0.0
 11
-1582.191182689704
 21
704.8320896985897
 31
0.0
  0
LINE
  5
2A2
330
29F
100
AcDbEntity
  8
_0-8__0-2_蟇_豕__ts
  6
Continuous
 62
     7
100
AcDbLine
 10
-1572.191182689459
 20
-793.6682765123407
 30
0.0
 11
-1572.191182689703
 21
698.8324559095287
 31
0.0
  0
INSERT
  5
2A3
330
29F
100
AcDbEntity
  8
_0-8__0-2_蟇_豕__ts
100
AcDbBlockReference
  2
-000-VW_EMPTYBALL
 10
-1572.191182689458
 20
-799.6679103014032
 30
0.0
 41
5.9996337890625
 42
5.9996337890625
 50
270.0000000000094
  0
INSERT
  5
2A4
330
29F
100
AcDbEntity
  8
_0-8__0-2_蟇_豕__ts
100
AcDbBlockReference
  2
-000-VW_EMPTYBALL
 10
-1572.191182689704
 20
704.8320896985913
 30
0.0
 41
5.9996337890625
 42
5.9996337890625
 50
90.00000000000936
  0
TEXT
  5
2A5
330
29F
100
AcDbEntity
  8
_0-8__0-2_蟇_豕__ts
 62
     7
100
AcDbText
 10
-1577.191182689581
 20
-83.97381850453379
 30
0.0
 40
24.37060546875
  1
1504.5
 50
90.0
100
AcDbText
  0
POINT
  5
2A6
330
29F
100
AcDbEntity
  8
_1-0__0-7__0-3_Defpoints
 62
     7
100
AcDbPoint
 10
-1463.091573332862
 20
-799.6679103013854
 30
0.0
  0
POINT
  5
2A7
330
29F
100
AcDbEntity
  8
_1-0__0-7__0-3_Defpoints
 62
     7
100
AcDbPoint
 10
-1434.091573332816
 20
704.8320896986139
 30
0.0
  0
POINT
  5
2A8
330
29F
100
AcDbEntity
  8
_1-0__0-7__0-3_Defpoints
 62
     7
100
AcDbPoint
 10
-1572.191182689704
 20
704.8320896985913
 30
0.0
  0
ENDBLK
  5
2A9
330
29F
100
AcDbEntity
  8
0
100
AcDbBlockEnd
  0
BLOCK
  5
2AA
330
2AB
100
AcDbEntity
  8
0
100
AcDbBlockBegin
  2
-042-_D44
 70
     0
 10
0.0
 20
0.0
 30
0.0
  3
-042-_D44
  1

  0
LINE
  5
2AC
330
2AB
100
AcDbEntity
  8
_0-8__0-2_蟇_豕__ts
  6
Continuous
 62
     7
100
AcDbLine
 10
-1473.091573332862
 20
-804.6679103013861
 30
0.0
 11
-1582.191182689937
 21
-804.667910301404
 31
0.0
  0
LINE
  5
2AD
330
2AB
100
AcDbEntity
  8
_0-8__0-2_蟇_豕__ts
  6
Continuous
 62
     7
100
AcDbLine
 10
-1473.091573332862
 20
-799.6679103013869
 30
0.0
 11
-1582.191182689938
 21
-799.6679103014048
 31
0.0
  0
LINE
  5
2AE
330
2AB
100
AcDbEntity
  8
_0-8__0-2_蟇_豕__ts
  6
Continuous
 62
     7
100
AcDbLine
 10
-1572.191182689936
 20
-810.6675440904648
 30
0.0
 11
-1572.191182689935
 21
-816.6671778795274
 31
0.0
  0
LINE
  5
2AF
330
2AB
100
AcDbEntity
  8
_0-8__0-2_蟇_豕__ts
  6
Continuous
 62
     7
100
AcDbLine
 10
-1572.191182689939
 20
-793.6682765123407
 30
0.0
 11
-1572.19118268994
 21
-787.6686427232782
 31
0.0
  0
INSERT
  5
2B0
330
2AB
100
AcDbEntity
  8
_0-8__0-2_蟇_豕__ts
100
AcDbBlockReference
  2
-000-VW_EMPTYBALL
 10
-1572.191182689937
 20
-804.6679103014025
 30
0.0
 41
5.9996337890625
 42
5.9996337890625
 50
90.0000000000104
  0
INSERT
  5
2B1
330
2AB
100
AcDbEntity
  8
_0-8__0-2_蟇_豕__ts
100
AcDbBlockReference
  2
-000-VW_EMPTYBALL
 10
-1572.191182689938
 20
-799.6679103014032
 30
0.0
 41
5.9996337890625
 42
5.9996337890625
 50
270.0000000000105
  0
TEXT
  5
2B2
330
2AB
100
AcDbEntity
  8
_0-8__0-2_蟇_豕__ts
 62
     7
100
AcDbText
 10
-1533.722129955563
 20
-808.2605616685825
 30
0.0
 40
24.37060546875
  1
5
 50
90.0
100
AcDbText
  0
POINT
  5
2B3
330
2AB
100
AcDbEntity
  8
_1-0__0-7__0-3_Defpoints
 62
     7
100
AcDbPoint
 10
-1463.091573332862
 20
-804.6679103013845
 30
0.0
  0
POINT
  5
2B4
330
2AB
100
AcDbEntity
  8
_1-0__0-7__0-3_Defpoints
 62
     7
100
AcDbPoint
 10
-1463.091573332862
 20
-799.6679103013854
 30
0.0
  0
POINT
  5
2B5
330
2AB
100
AcDbEntity
  8
_1-0__0-7__0-3_Defpoints
 62
     7
100
AcDbPoint
 10
-1572.191182689938
 20
-799.6679103014032
 30
0.0
  0
ENDBLK
  5
2B6
330
2AB
100
AcDbEntity
  8
0
100
AcDbBlockEnd
  0
BLOCK
  5
2B7
330
2B8
100
AcDbEntity
  8
0
100
AcDbBlockBegin
  2
-043-_D45
 70
     0
 10
0.0
 20
0.0
 30
0.0
  3
-043-_D45
  1

  0
LINE
  5
2B9
330
2B8
100
AcDbEntity
  8
_0-8__0-2_蟇_豕__ts
  6
Continuous
 62
     7
100
AcDbLine
 10
-1473.091573332862
 20
-809.1679103013817
 30
0.0
 11
-1582.191182689937
 21
-809.1679103013994
 31
0.0
  0
LINE
  5
2BA
330
2B8
100
AcDbEntity
  8
_0-2_蟇_豕__
  6
Continuous
 62
     7
100
AcDbLine
 10
-1473.091573332862
 20
-804.6679103013861
 30
0.0
 11
-1582.191182689938
 21
-804.667910301404
 31
0.0
  0
LINE
  5
2BB
330
2B8
100
AcDbEntity
  8
_0-8__0-2_蟇_豕__ts
  6
Continuous
 62
     7
100
AcDbLine
 10
-1572.191182689937
 20
-809.1679103013978
 30
0.0
 11
-1572.191182689938
 21
-804.6679103014025
 31
0.0
  0
LINE
  5
2BC
330
2B8
100
AcDbEntity
  8
_0-8__0-2_蟇_豕__ts
  6
Continuous
 62
     7
100
AcDbLine
 10
-1572.191182689936
 20
-815.1675440904604
 30
0.0
 11
-1572.191182689935
 21
-821.167177879523
 31
0.0
  0
LINE
  5
2BD
330
2B8
100
AcDbEntity
  8
_0-8__0-2_蟇_豕__ts
  6
Continuous
 62
     7
100
AcDbLine
 10
-1572.191182689939
 20
-798.6682765123399
 30
0.0
 11
-1572.19118268994
 21
-792.6686427232774
 31
0.0
  0
INSERT
  5
2BE
330
2B8
100
AcDbEntity
  8
_0-2_蟇_豕__
100
AcDbBlockReference
  2
-000-VW_EMPTYBALL
 10
-1572.191182689937
 20
-809.1679103013978
 30
0.0
 41
5.9996337890625
 42
5.9996337890625
 50
90.00000000000868
  0
INSERT
  5
2BF
330
2B8
100
AcDbEntity
  8
_0-2_蟇_豕__
100
AcDbBlockReference
  2
-000-VW_EMPTYBALL
 10
-1572.191182689938
 20
-804.6679103014025
 30
0.0
 41
5.9996337890625
 42
5.9996337890625
 50
270.0000000000087
  0
TEXT
  5
2C0
330
2B8
100
AcDbEntity
  8
_0-8__0-2_蟇_豕__ts
 62
     7
100
AcDbText
 10
-1580.722129955567
 20
-851.2583660851968
 30
0.0
 40
24.37060546875
  1
4.5
 50
90.0
100
AcDbText
  0
POINT
  5
2C1
330
2B8
100
AcDbEntity
  8
_1-0__0-7__0-3_Defpoints
 62
     7
100
AcDbPoint
 10
-1463.091573332862
 20
-809.1679103013801
 30
0.0
  0
POINT
  5
2C2
330
2B8
100
AcDbEntity
  8
_1-0__0-7__0-3_Defpoints
 62
     7
100
AcDbPoint
 10
-1463.091573332862
 20
-804.6679103013845
 30
0.0
  0
POINT
  5
2C3
330
2B8
100
AcDbEntity
  8
_1-0__0-7__0-3_Defpoints
 62
     7
100
AcDbPoint
 10
-1572.191182689938
 20
-804.6679103014025
 30
0.0
  0
ENDBLK
  5
2C4
330
2B8
100
AcDbEntity
  8
0
100
AcDbBlockEnd
  0
ENDSEC
  0
SECTION
  2
ENTITIES
  0
LINE
  5
2C5
330
1D
100
AcDbEntity
  8
_0-1_荳_闊_
  6
Continuous
 62
     7
100
AcDbLine
 10
1200.631482263231
 20
1686.497919040528
 30
0.0
 11
1320.631482263231
 21
1686.497919040528
 31
0.0
  0
LINE
  5
2C6
330
1D
100
AcDbEntity
  8
_0-1_荳_闊_
  6
Continuous
 62
     7
100
AcDbLine
 10
1320.631482263231
 20
1686.497919040528
 30
0.0
 11
1320.631482263231
 21
1186.497919040528
 31
0.0
  0
LINE
  5
2C7
330
1D
100
AcDbEntity
  8
_0-1_荳_闊_
  6
Continuous
 62
     7
100
AcDbLine
 10
1320.631482263231
 20
1186.497919040528
 30
0.0
 11
1200.631482263231
 21
1186.497919040528
 31
0.0
  0
LINE
  5
2C8
330
1D
100
AcDbEntity
  8
_0-1_荳_闊_
  6
Continuous
 62
     7
100
AcDbLine
 10
1200.631482263231
 20
1186.497919040528
 30
0.0
 11
1200.631482263231
 21
1686.497919040528
 31
0.0
  0
LINE
  5
2C9
330
1D
100
AcDbEntity
  8
_0-1_荳_闊_
  6
Continuous
 62
     7
100
AcDbLine
 10
-283.3004982523625
 20
202.5659385251379
 30
0.0
 11
216.6995017476211
 21
202.5659385251379
 31
0.0
  0
LINE
  5
2CA
330
1D
100
AcDbEntity
  8
_0-1_荳_闊_
  6
Continuous
 62
     7
100
AcDbLine
 10
216.6995017476211
 20
202.5659385251379
 30
0.0
 11
216.6995017476211
 21
82.56593852513788
 31
0.0
  0
LINE
  5
2CB
330
1D
100
AcDbEntity
  8
_0-1_荳_闊_
  6
Continuous
 62
     7
100
AcDbLine
 10
216.6995017476211
 20
82.56593852513788
 30
0.0
 11
-283.3004982523625
 21
82.56593852513788
 31
0.0
  0
LINE
  5
2CC
330
1D
100
AcDbEntity
  8
_0-1_荳_闊_
  6
Continuous
 62
     7
100
AcDbLine
 10
-283.3004982523625
 20
82.56593852513788
 30
0.0
 11
-283.3004982523625
 21
202.5659385251379
 31
0.0
  0
LINE
  5
2CD
330
1D
100
AcDbEntity
  8
_0-1_荳_闊_
  6
Continuous
 62
     7
100
AcDbLine
 10
-715.2089172875335
 20
-296.644528219274
 30
0.0
 11
3142.026982873865
 21
-296.644528219274
 31
0.0
  0
LINE
  5
2CE
330
1D
100
AcDbEntity
  8
_0-1_荳_闊_
  6
Continuous
 62
     7
100
AcDbLine
 10
3142.026982873865
 20
-296.644528219274
 30
0.0
 11
3142.026982873865
 21
-416.6445282192739
 31
0.0
  0
LINE
  5
2CF
330
1D
100
AcDbEntity
  8
_0-1_荳_闊_
  6
Continuous
 62
     7
100
AcDbLine
 10
3142.026982873865
 20
-416.6445282192739
 30
0.0
 11
-715.2089172875335
 21
-416.6445282192739
 31
0.0
  0
LINE
  5
2D0
330
1D
100
AcDbEntity
  8
_0-1_荳_闊_
  6
Continuous
 62
     7
100
AcDbLine
 10
-715.2089172875335
 20
-416.6445282192739
 30
0.0
 11
-715.2089172875335
 21
-296.644528219274
 31
0.0
  0
LINE
  5
2D1
330
1D
100
AcDbEntity
  8
_0-1_荳_闊_
  6
Continuous
 62
     7
100
AcDbLine
 10
963.2218627051598
 20
-296.644528219274
 30
0.0
 11
963.2218627051598
 21
-416.6445282192739
 31
0.0
  0
LINE
  5
2D2
330
1D
100
AcDbEntity
  8
_0-1_荳_闊_
  6
繝_繧_繝_繧_繧_繝__24
 62
     7
100
AcDbLine
 10
1108.631482263217
 20
1736.497919040388
 30
0.0
 11
1408.631482263315
 21
1736.497919040388
 31
0.0
  0
LINE
  5
2D3
330
1D
100
AcDbEntity
  8
_0-1_荳_闊_
  6
繝_繧_繝_繧_繧_繝__24
 62
     7
100
AcDbLine
 10
1408.631482263315
 20
1736.497919040388
 30
0.0
 11
1408.631482263315
 21
1136.497919040339
 31
0.0
  0
LINE
  5
2D4
330
1D
100
AcDbEntity
  8
_0-1_荳_闊_
  6
繝_繧_繝_繧_繧_繝__24
 62
     7
100
AcDbLine
 10
1408.631482263315
 20
1136.497919040339
 30
0.0
 11
1108.631482263217
 21
1136.497919040339
 31
0.0
  0
LINE
  5
2D5
330
1D
100
AcDbEntity
  8
_0-1_荳_闊_
  6
繝_繧_繝_繧_繧_繝__24
 62
     7
100
AcDbLine
 10
1108.631482263217
 20
1136.497919040339
 30
0.0
 11
1108.631482263217
 21
1736.497919040388
 31
0.0
  0
LINE
  5
2D6
330
1D
100
AcDbEntity
  8
_0-1_荳_闊_
  6
繝_繧_繝_繧_繧_繝__24
 62
     7
100
AcDbLine
 10
139.1995017476295
 20
145.0659385251098
 30
0.0
 11
139.1995017476286
 21
140.0659385251098
 31
0.0
  0
ARC
  5
2D7
330
1D
100
AcDbEntity
  8
_0-1_荳_闊_
  6
繝_繧_繝_繧_繧_繝__24
 62
     7
100
AcDbCircle
 10
146.6995017476286
 20
140.0659385251085
 30
0.0
 40
7.5
100
AcDbArc
 50
179.9999999999904
 51
359.9999999999905
  0
LINE
  5
2D8
330
1D
100
AcDbEntity
  8
_0-1_荳_闊_
  6
繝_繧_繝_繧_繧_繝__24
 62
     7
100
AcDbLine
 10
154.1995017476286
 20
140.0659385251073
 30
0.0
 11
154.1995017476295
 21
145.0659385251073
 31
0.0
  0
LINE
  5
2D9
330
1D
100
AcDbEntity
  8
_0-1_荳_闊_
  6
繝_繧_繝_繧_繧_繝__24
 62
     7
100
AcDbLine
 10
154.1995017476295
 20
145.0659385251073
 30
0.0
 11
139.1995017476295
 21
145.0659385251098
 31
0.0
  0
LINE
  5
2DA
330
1D
100
AcDbEntity
  8
_0-1_荳_闊_
  6
繝_繧_繝_繧_繧_繝__24
 62
     7
100
AcDbLine
 10
-205.8004982523705
 20
145.065938525166
 30
0.0
 11
-205.8004982523714
 21
140.065938525166
 31
0.0
  0
ARC
  5
2DB
330
1D
100
AcDbEntity
  8
_0-1_荳_闊_
  6
繝_繧_繝_繧_繧_繝__24
 62
     7
100
AcDbCircle
 10
-213.3004982523714
 20
140.0659385251673
 30
0.0
 40
7.5
100
AcDbArc
 50
179.9999999999904
 51
359.9999999999905
  0
LINE
  5
2DC
330
1D
100
AcDbEntity
  8
_0-1_荳_闊_
  6
繝_繧_繝_繧_繧_繝__24
 62
     7
100
AcDbLine
 10
-220.8004982523714
 20
140.0659385251685
 30
0.0
 11
-220.8004982523705
 21
145.0659385251686
 31
0.0
  0
LINE
  5
2DD
330
1D
100
AcDbEntity
  8
_0-1_荳_闊_
  6
繝_繧_繝_繧_繧_繝__24
 62
     7
100
AcDbLine
 10
-220.8004982523705
 20
145.0659385251686
 30
0.0
 11
-205.8004982523705
 21
145.065938525166
 31
0.0
  0
INSERT
  5
2DE
330
1D
100
AcDbEntity
  8
_0-8__0-2_蟇_豕__ts
100
AcDbBlockReference
  2
-001-_D2
 10
1179.7910750807
 20
949.483848826528
 30
0.0
  0
LINE
  5
2DF
330
1D
100
AcDbEntity
  8
_0-1_荳_闊_
  6
繝_繧_繝_繧_繧_繝__24
 62
     7
100
AcDbLine
 10
-333.3004982522546
 20
-7.434061474994564
 30
0.0
 11
-333.3004982522546
 21
292.5659385252007
 31
0.0
  0
LINE
  5
2E0
330
1D
100
AcDbEntity
  8
_0-1_荳_闊_
  6
繝_繧_繝_繧_繧_繝__24
 62
     7
100
AcDbLine
 10
-333.3004982522546
 20
292.5659385252007
 30
0.0
 11
266.6995017478429
 21
292.5659385252007
 31
0.0
  0
LINE
  5
2E1
330
1D
100
AcDbEntity
  8
_0-1_荳_闊_
  6
繝_繧_繝_繧_繧_繝__24
 62
     7
100
AcDbLine
 10
266.6995017478429
 20
292.5659385252007
 30
0.0
 11
266.6995017478429
 21
-7.434061474994564
 31
0.0
  0
LINE
  5
2E2
330
1D
100
AcDbEntity
  8
_0-1_荳_闊_
  6
繝_繧_繝_繧_繧_繝__24
 62
     7
100
AcDbLine
 10
266.6995017478429
 20
-7.434061474994564
 30
0.0
 11
-333.3004982522546
 21
-7.434061474994564
 31
0.0
  0
INSERT
  5
2E3
330
1D
100
AcDbEntity
  8
_0-2_蟇_豕__
100
AcDbBlockReference
  2
-002-_D3
 10
1179.7910750807
 20
949.483848826528
 30
0.0
  0
INSERT
  5
2E4
330
1D
100
AcDbEntity
  8
_0-2_蟇_豕__
100
AcDbBlockReference
  2
-003-_D4
 10
1179.7910750807
 20
949.483848826528
 30
0.0
  0
INSERT
  5
2E5
330
1D
100
AcDbEntity
  8
_0-8__0-2_蟇_豕__ts
100
AcDbBlockReference
  2
-004-_D5
 10
1179.7910750807
 20
949.483848826528
 30
0.0
  0
INSERT
  5
2E6
330
1D
100
AcDbEntity
  8
_0-2_蟇_豕__
100
AcDbBlockReference
  2
-005-_D6
 10
1179.7910750807
 20
949.483848826528
 30
0.0
  0
INSERT
  5
2E7
330
1D
100
AcDbEntity
  8
_0-8__0-2_蟇_豕__ts
100
AcDbBlockReference
  2
-006-_D7
 10
1179.7910750807
 20
949.483848826528
 30
0.0
  0
INSERT
  5
2E8
330
1D
100
AcDbEntity
  8
_0-8__0-2_蟇_豕__ts
100
AcDbBlockReference
  2
-007-_D8
 10
1179.7910750807
 20
949.483848826528
 30
0.0
  0
LINE
  5
2E9
330
1D
100
AcDbEntity
  8
_0-1_荳_闊_
  6
Continuous
 62
     7
100
AcDbLine
 10
1262.88148226322
 20
1581.470137404761
 30
0.0
 11
1371.064700884641
 21
1689.653356026182
 31
0.0
  0
LINE
  5
2EA
330
1D
100
AcDbEntity
  8
_0-1_荳_闊_
  6
Continuous
 62
     7
100
AcDbLine
 10
1371.064700884641
 20
1689.653356026182
 30
0.0
 11
1371.064700884641
 21
1926.745553768193
 31
0.0
  0
LINE
  5
2EB
330
1D
100
AcDbEntity
  8
_0-1_荳_闊_
  6
Continuous
 62
     7
100
AcDbLine
 10
1287.22186270516
 20
-296.644528219274
 30
0.0
 11
1287.22186270516
 21
-416.6445282192739
 31
0.0
  0
LINE
  5
2EC
330
1D
100
AcDbEntity
  8
_0-1_荳_闊_
  6
Continuous
 62
     7
100
AcDbLine
 10
1287.221862705158
 20
-296.644528219274
 30
0.0
 11
1287.221862705158
 21
-416.6445282192739
 31
0.0
  0
LINE
  5
2ED
330
1D
100
AcDbEntity
  8
_0-1_荳_闊_
  6
Continuous
 62
     7
100
AcDbLine
 10
2541.221862705159
 20
-296.644528219274
 30
0.0
 11
2541.221862705159
 21
-416.6445282192739
 31
0.0
  0
LINE
  5
2EE
330
1D
100
AcDbEntity
  8
_0-1_荳_闊_
  6
Continuous
 62
     7
100
AcDbLine
 10
2541.221862705159
 20
-296.644528219274
 30
0.0
 11
2541.221862705159
 21
-416.6445282192739
 31
0.0
  0
LINE
  5
2EF
330
1D
100
AcDbEntity
  8
_0-1_荳_闊_
  6
Continuous
 62
     7
100
AcDbLine
 10
2237.221862705158
 20
-296.644528219274
 30
0.0
 11
2237.221862705158
 21
-416.6445282192739
 31
0.0
  0
LINE
  5
2F0
330
1D
100
AcDbEntity
  8
_0-1_荳_闊_
  6
Continuous
 62
     7
100
AcDbLine
 10
1933.221862705158
 20
-296.644528219274
 30
0.0
 11
1933.221862705158
 21
-416.6445282192739
 31
0.0
  0
LINE
  5
2F1
330
1D
100
AcDbEntity
  8
_0-1_荳_闊_
  6
Continuous
 62
     7
100
AcDbLine
 10
1933.221862705158
 20
-296.644528219274
 30
0.0
 11
1933.221862705158
 21
-416.6445282192739
 31
0.0
  0
LINE
  5
2F2
330
1D
100
AcDbEntity
  8
_0-1_荳_闊_
  6
Continuous
 62
     7
100
AcDbLine
 10
2237.221862705158
 20
-296.644528219274
 30
0.0
 11
2237.221862705158
 21
-416.6445282192739
 31
0.0
  0
INSERT
  5
2F3
330
1D
100
AcDbEntity
  8
_0-8__0-2_蟇_豕__ts
100
AcDbBlockReference
  2
-008-_D9
 10
1179.7910750807
 20
949.483848826528
 30
0.0
  0
INSERT
  5
2F4
330
1D
100
AcDbEntity
  8
_0-8__0-2_蟇_豕__ts
100
AcDbBlockReference
  2
-009-_D10
 10
1179.7910750807
 20
949.483848826528
 30
0.0
  0
INSERT
  5
2F5
330
1D
100
AcDbEntity
  8
_0-8__0-2_蟇_豕__ts
100
AcDbBlockReference
  2
-010-_D11
 10
1179.7910750807
 20
949.483848826528
 30
0.0
  0
INSERT
  5
2F6
330
1D
100
AcDbEntity
  8
_0-8__0-2_蟇_豕__ts
100
AcDbBlockReference
  2
-011-_D12
 10
1179.7910750807
 20
949.483848826528
 30
0.0
  0
INSERT
  5
2F7
330
1D
100
AcDbEntity
  8
_0-8__0-2_蟇_豕__ts
100
AcDbBlockReference
  2
-012-_D13
 10
1179.7910750807
 20
949.483848826528
 30
0.0
  0
INSERT
  5
2F8
330
1D
100
AcDbEntity
  8
_0-8__0-2_蟇_豕__ts
100
AcDbBlockReference
  2
-013-_D14
 10
1179.7910750807
 20
949.483848826528
 30
0.0
  0
LINE
  5
2F9
330
1D
100
AcDbEntity
  8
_0-1_荳_闊_
  6
Continuous
 62
     7
100
AcDbLine
 10
2486.526349936168
 20
1335.888337211192
 30
0.0
 11
2137.026349936167
 21
1335.888337211192
 31
0.0
  0
ARC
  5
2FA
330
1D
100
AcDbEntity
  8
_0-1_荳_闊_
  6
Continuous
 62
     7
100
AcDbCircle
 10
2486.526349936168
 20
1365.388337211192
 30
0.0
 40
29.5
100
AcDbArc
 50
270.0
 51
322.8076058207582
  0
LINE
  5
2FB
330
1D
100
AcDbEntity
  8
_0-1_荳_闊_
  6
Continuous
 62
     7
100
AcDbLine
 10
2516.026349936167
 20
1583.244284251275
 30
0.0
 11
2516.026349936167
 21
1289.751553829781
 31
0.0
  0
LINE
  5
2FC
330
1D
100
AcDbEntity
  8
_0-1_荳_闊_
  6
Continuous
 62
     7
100
AcDbLine
 10
2131.026349936168
 20
1192.497919040528
 30
0.0
 11
2131.026349936168
 21
1680.497919040528
 31
0.0
  0
LINE
  5
2FD
330
1D
100
AcDbEntity
  8
_0-1_荳_闊_
  6
Continuous
 62
     7
100
AcDbLine
 10
2486.526349936168
 20
1341.888337211192
 30
0.0
 11
2137.026349936167
 21
1341.888337211192
 31
0.0
  0
ARC
  5
2FE
330
1D
100
AcDbEntity
  8
_0-1_荳_闊_
  6
Continuous
 62
     7
100
AcDbCircle
 10
2486.526349936168
 20
1366.888337211192
 30
0.0
 40
25.0
100
AcDbArc
 50
270.0
 51
340.0515564111974
  0
INSERT
  5
2FF
330
1D
100
AcDbEntity
  8
_0-2_蟇_豕__
100
AcDbBlockReference
  2
-014-_D15
 10
1179.7910750807
 20
949.483848826528
 30
0.0
  0
LINE
  5
300
330
1D
100
AcDbEntity
  8
_0-1_荳_闊_
  6
Continuous
 62
     7
100
AcDbLine
 10
2486.526349936168
 20
1286.390862528134
 30
0.0
 11
2137.026349936167
 21
1286.390862528134
 31
0.0
  0
ARC
  5
301
330
1D
100
AcDbEntity
  8
_0-1_荳_闊_
  6
Continuous
 62
     7
100
AcDbCircle
 10
2486.526349936168
 20
1315.890862528134
 30
0.0
 40
29.5
100
AcDbArc
 50
270.0
 51
322.807605820758
  0
LINE
  5
302
330
1D
100
AcDbEntity
  8
_0-1_荳_闊_
  6
Continuous
 62
     7
100
AcDbLine
 10
2516.026349936167
 20
1262.493940361715
 30
0.0
 11
2516.026349936167
 21
1289.751553829781
 31
0.0
  0
LINE
  5
303
330
1D
100
AcDbEntity
  8
_0-1_荳_闊_
  6
Continuous
 62
     7
100
AcDbLine
 10
2486.526349936168
 20
1580.604975552923
 30
0.0
 11
2137.026349936167
 21
1580.604975552923
 31
0.0
  0
ARC
  5
304
330
1D
100
AcDbEntity
  8
_0-1_荳_闊_
  6
Continuous
 62
     7
100
AcDbCircle
 10
2486.526349936168
 20
1551.104975552923
 30
0.0
 40
29.50000000000006
100
AcDbArc
 50
37.19239417924198
 51
90.0
  0
LINE
  5
305
330
1D
100
AcDbEntity
  8
_0-1_荳_闊_
  6
Continuous
 62
     7
100
AcDbLine
 10
2486.526349936168
 20
1531.107500869864
 30
0.0
 11
2137.026349936167
 21
1531.107500869864
 31
0.0
  0
ARC
  5
306
330
1D
100
AcDbEntity
  8
_0-1_荳_闊_
  6
Continuous
 62
     7
100
AcDbCircle
 10
2486.526349936168
 20
1506.107500869864
 30
0.0
 40
24.99999999999999
100
AcDbArc
 50
19.9484435888026
 51
89.99999999999996
  0
LINE
  5
307
330
1D
100
AcDbEntity
  8
_0-1_荳_闊_
  6
Continuous
 62
     7
100
AcDbLine
 10
2486.526349936168
 20
1586.604975552923
 30
0.0
 11
2137.026349936167
 21
1586.604975552923
 31
0.0
  0
ARC
  5
308
330
1D
100
AcDbEntity
  8
_0-1_荳_闊_
  6
Continuous
 62
     7
100
AcDbCircle
 10
2486.526349936168
 20
1557.104975552922
 30
0.0
 40
29.50000000000006
100
AcDbArc
 50
37.19239417924198
 51
90.0
  0
LINE
  5
309
330
1D
100
AcDbEntity
  8
_0-1_荳_闊_
  6
繝_繧_繝_繧_繧_繝__22
 62
     7
100
AcDbLine
 10
2516.026349936167
 20
-70.57921682617609
 30
0.0
 11
2516.026349936167
 21
1975.590287927708
 31
0.0
  0
INSERT
  5
30A
330
1D
100
AcDbEntity
  8
_0-1_荳_闊_
100
AcDbBlockReference
  2
-015-繧_繝_繝_繝__2-1
 10
1181.555167287535
 20
952.4088051140589
 30
0.0
  0
INSERT
  5
30B
330
1D
100
AcDbEntity
  8
_0-8__0-2_蟇_豕__ts
100
AcDbBlockReference
  2
-016-_D17
 10
1179.7910750807
 20
949.483848826528
 30
0.0
  0
LINE
  5
30C
330
1D
100
AcDbEntity
  8
_0-1_荳_闊_
  6
Continuous
 62
     7
100
AcDbLine
 10
2516.026349936167
 20
1136.497919040528
 30
0.0
 11
2516.026349936167
 21
1736.497919040528
 31
0.0
  0
LINE
  5
30D
330
1D
100
AcDbEntity
  8
_0-1_荳_闊_
  6
Continuous
 62
     7
100
AcDbLine
 10
2516.026349936167
 20
1736.497919040528
 30
0.0
 11
2816.026349936167
 21
1736.497919040528
 31
0.0
  0
LINE
  5
30E
330
1D
100
AcDbEntity
  8
_0-1_荳_闊_
  6
Continuous
 62
     7
100
AcDbLine
 10
2816.026349936167
 20
1736.497919040528
 30
0.0
 11
2816.026349936167
 21
1136.497919040528
 31
0.0
  0
LINE
  5
30F
330
1D
100
AcDbEntity
  8
_0-1_荳_闊_
  6
Continuous
 62
     7
100
AcDbLine
 10
2816.026349936167
 20
1136.497919040528
 30
0.0
 11
2516.026349936167
 21
1136.497919040528
 31
0.0
  0
LINE
  5
310
330
1D
100
AcDbEntity
  8
_0-1_荳_闊_
  6
Continuous
 62
     7
100
AcDbLine
 10
2816.026349936167
 20
1111.497919040528
 30
0.0
 11
2816.026349936167
 21
1761.497919040528
 31
0.0
  0
LINE
  5
311
330
1D
100
AcDbEntity
  8
_0-1_荳_闊_
  6
Continuous
 62
     7
100
AcDbLine
 10
2816.026349936167
 20
1761.497919040528
 30
0.0
 11
2866.026349936167
 21
1761.497919040528
 31
0.0
  0
LINE
  5
312
330
1D
100
AcDbEntity
  8
_0-1_荳_闊_
  6
Continuous
 62
     7
100
AcDbLine
 10
2866.026349936167
 20
1761.497919040528
 30
0.0
 11
2866.026349936167
 21
1111.497919040528
 31
0.0
  0
LINE
  5
313
330
1D
100
AcDbEntity
  8
_0-1_荳_闊_
  6
Continuous
 62
     7
100
AcDbLine
 10
2866.026349936167
 20
1111.497919040528
 30
0.0
 11
2816.026349936167
 21
1111.497919040528
 31
0.0
  0
LINE
  5
314
330
1D
100
AcDbEntity
  8
_0-1_荳_闊_
  6
Continuous
 62
     7
100
AcDbLine
 10
2866.026349936167
 20
1122.064162310789
 30
0.0
 11
2816.026349936167
 21
1150.931675770267
 31
0.0
  0
LINE
  5
315
330
1D
100
AcDbEntity
  8
_0-1_荳_闊_
  6
Continuous
 62
     7
100
AcDbLine
 10
2820.533485029882
 20
1148.329480110637
 30
0.0
 11
2816.026349936167
 21
1143.822345016922
 31
0.0
  0
LINE
  5
316
330
1D
100
AcDbEntity
  8
_0-1_荳_闊_
  6
Continuous
 62
     7
100
AcDbLine
 10
2866.026349936167
 20
1129.173493064134
 30
0.0
 11
2861.519214842452
 21
1124.666357970419
 31
0.0
  0
LINE
  5
317
330
1D
100
AcDbEntity
  8
_0-1_荳_闊_
  6
Continuous
 62
     7
100
AcDbLine
 10
2866.026349936167
 20
1172.503893198657
 30
0.0
 11
2816.026349936167
 21
1201.371406658135
 31
0.0
  0
LINE
  5
318
330
1D
100
AcDbEntity
  8
_0-1_荳_闊_
  6
Continuous
 62
     7
100
AcDbLine
 10
2820.533485029882
 20
1198.769210998505
 30
0.0
 11
2816.026349936167
 21
1194.26207590479
 31
0.0
  0
LINE
  5
319
330
1D
100
AcDbEntity
  8
_0-1_荳_闊_
  6
Continuous
 62
     7
100
AcDbLine
 10
2866.026349936167
 20
1179.613223952002
 30
0.0
 11
2861.519214842452
 21
1175.106088858287
 31
0.0
  0
LINE
  5
31A
330
1D
100
AcDbEntity
  8
_0-1_荳_闊_
  6
Continuous
 62
     7
100
AcDbLine
 10
2866.026349936167
 20
1222.943624086525
 30
0.0
 11
2816.026349936167
 21
1251.811137546003
 31
0.0
  0
LINE
  5
31B
330
1D
100
AcDbEntity
  8
_0-1_荳_闊_
  6
Continuous
 62
     7
100
AcDbLine
 10
2820.533485029882
 20
1249.208941886373
 30
0.0
 11
2816.026349936167
 21
1244.701806792658
 31
0.0
  0
LINE
  5
31C
330
1D
100
AcDbEntity
  8
_0-1_荳_闊_
  6
Continuous
 62
     7
100
AcDbLine
 10
2866.026349936167
 20
1230.05295483987
 30
0.0
 11
2861.519214842452
 21
1225.545819746155
 31
0.0
  0
LINE
  5
31D
330
1D
100
AcDbEntity
  8
_0-1_荳_闊_
  6
Continuous
 62
     7
100
AcDbLine
 10
2866.026349936167
 20
1273.383354974393
 30
0.0
 11
2816.026349936167
 21
1302.250868433871
 31
0.0
  0
LINE
  5
31E
330
1D
100
AcDbEntity
  8
_0-1_荳_闊_
  6
Continuous
 62
     7
100
AcDbLine
 10
2820.533485029882
 20
1299.648672774241
 30
0.0
 11
2816.026349936167
 21
1295.141537680526
 31
0.0
  0
LINE
  5
31F
330
1D
100
AcDbEntity
  8
_0-1_荳_闊_
  6
Continuous
 62
     7
100
AcDbLine
 10
2866.026349936167
 20
1280.492685727738
 30
0.0
 11
2861.519214842452
 21
1275.985550634023
 31
0.0
  0
LINE
  5
320
330
1D
100
AcDbEntity
  8
_0-1_荳_闊_
  6
Continuous
 62
     7
100
AcDbLine
 10
2866.026349936167
 20
1323.823085862261
 30
0.0
 11
2816.026349936167
 21
1352.690599321739
 31
0.0
  0
LINE
  5
321
330
1D
100
AcDbEntity
  8
_0-1_荳_闊_
  6
Continuous
 62
     7
100
AcDbLine
 10
2820.533485029882
 20
1350.088403662109
 30
0.0
 11
2816.026349936167
 21
1345.581268568394
 31
0.0
  0
LINE
  5
322
330
1D
100
AcDbEntity
  8
_0-1_荳_闊_
  6
Continuous
 62
     7
100
AcDbLine
 10
2866.026349936167
 20
1330.932416615606
 30
0.0
 11
2861.519214842452
 21
1326.42528152189
 31
0.0
  0
LINE
  5
323
330
1D
100
AcDbEntity
  8
_0-1_荳_闊_
  6
Continuous
 62
     7
100
AcDbLine
 10
2866.026349936167
 20
1374.262816750129
 30
0.0
 11
2816.026349936167
 21
1403.130330209607
 31
0.0
  0
LINE
  5
324
330
1D
100
AcDbEntity
  8
_0-1_荳_闊_
  6
Continuous
 62
     7
100
AcDbLine
 10
2820.533485029882
 20
1400.528134549976
 30
0.0
 11
2816.026349936167
 21
1396.020999456262
 31
0.0
  0
LINE
  5
325
330
1D
100
AcDbEntity
  8
_0-1_荳_闊_
  6
Continuous
 62
     7
100
AcDbLine
 10
2866.026349936167
 20
1381.372147503473
 30
0.0
 11
2861.519214842452
 21
1376.865012409759
 31
0.0
  0
LINE
  5
326
330
1D
100
AcDbEntity
  8
_0-1_荳_闊_
  6
Continuous
 62
     7
100
AcDbLine
 10
2866.026349936167
 20
1424.702547637996
 30
0.0
 11
2816.026349936167
 21
1453.570061097474
 31
0.0
  0
LINE
  5
327
330
1D
100
AcDbEntity
  8
_0-1_荳_闊_
  6
Continuous
 62
     7
100
AcDbLine
 10
2820.533485029882
 20
1450.967865437844
 30
0.0
 11
2816.026349936167
 21
1446.46073034413
 31
0.0
  0
LINE
  5
328
330
1D
100
AcDbEntity
  8
_0-1_荳_闊_
  6
Continuous
 62
     7
100
AcDbLine
 10
2866.026349936167
 20
1431.811878391341
 30
0.0
 11
2861.519214842452
 21
1427.304743297626
 31
0.0
  0
LINE
  5
329
330
1D
100
AcDbEntity
  8
_0-1_荳_闊_
  6
Continuous
 62
     7
100
AcDbLine
 10
2516.026349936167
 20
1596.413933494794
 30
0.0
 11
2816.292910353182
 21
1296.147373077731
 31
0.0
  0
LINE
  5
32A
330
1D
100
AcDbEntity
  8
_0-1_荳_闊_
  6
Continuous
 62
     7
100
AcDbLine
 10
2516.026349936167
 20
1586.900649063446
 30
0.0
 11
2816.292910353182
 21
1286.634088646479
 31
0.0
  0
LINE
  5
32B
330
1D
100
AcDbEntity
  8
_0-1_荳_闊_
  6
Continuous
 62
     7
100
AcDbLine
 10
2516.026349936167
 20
1577.387364632194
 30
0.0
 11
2816.292910353182
 21
1277.120804215227
 31
0.0
  0
LINE
  5
32C
330
1D
100
AcDbEntity
  8
_0-1_荳_闊_
  6
Continuous
 62
     7
100
AcDbLine
 10
2816.026349936167
 20
1125.328896988449
 30
0.0
 11
2816.292910353182
 21
1125.062336571433
 31
0.0
  0
LINE
  5
32D
330
1D
100
AcDbEntity
  8
_0-1_荳_闊_
  6
Continuous
 62
     7
100
AcDbLine
 10
2866.026349936167
 20
1470.694718358544
 30
0.0
 11
2816.026349936167
 21
1499.562231818022
 31
0.0
  0
LINE
  5
32E
330
1D
100
AcDbEntity
  8
_0-1_荳_闊_
  6
Continuous
 62
     7
100
AcDbLine
 10
2820.533485029882
 20
1496.960036158392
 30
0.0
 11
2816.026349936167
 21
1492.452901064677
 31
0.0
  0
LINE
  5
32F
330
1D
100
AcDbEntity
  8
_0-1_荳_闊_
  6
Continuous
 62
     7
100
AcDbLine
 10
2866.026349936167
 20
1477.804049111889
 30
0.0
 11
2861.519214842452
 21
1473.296914018174
 31
0.0
  0
LINE
  5
330
330
1D
100
AcDbEntity
  8
_0-1_荳_闊_
  6
Continuous
 62
     7
100
AcDbLine
 10
2866.026349936167
 20
1521.134449246412
 30
0.0
 11
2816.026349936167
 21
1550.00196270589
 31
0.0
  0
LINE
  5
331
330
1D
100
AcDbEntity
  8
_0-1_荳_闊_
  6
Continuous
 62
     7
100
AcDbLine
 10
2820.533485029882
 20
1547.39976704626
 30
0.0
 11
2816.026349936167
 21
1542.892631952545
 31
0.0
  0
LINE
  5
332
330
1D
100
AcDbEntity
  8
_0-1_荳_闊_
  6
Continuous
 62
     7
100
AcDbLine
 10
2866.026349936167
 20
1528.243779999757
 30
0.0
 11
2861.519214842452
 21
1523.736644906042
 31
0.0
  0
LINE
  5
333
330
1D
100
AcDbEntity
  8
_0-1_荳_闊_
  6
Continuous
 62
     7
100
AcDbLine
 10
2866.026349936167
 20
1571.57418013428
 30
0.0
 11
2816.026349936167
 21
1600.441693593758
 31
0.0
  0
LINE
  5
334
330
1D
100
AcDbEntity
  8
_0-1_荳_闊_
  6
Continuous
 62
     7
100
AcDbLine
 10
2820.533485029882
 20
1597.839497934128
 30
0.0
 11
2816.026349936167
 21
1593.332362840413
 31
0.0
  0
LINE
  5
335
330
1D
100
AcDbEntity
  8
_0-1_荳_闊_
  6
Continuous
 62
     7
100
AcDbLine
 10
2866.026349936167
 20
1578.683510887625
 30
0.0
 11
2861.519214842452
 21
1574.17637579391
 31
0.0
  0
LINE
  5
336
330
1D
100
AcDbEntity
  8
_0-1_荳_闊_
  6
Continuous
 62
     7
100
AcDbLine
 10
2816.026349936167
 20
1473.959453036204
 30
0.0
 11
2816.292910353182
 21
1473.692892619189
 31
0.0
  0
LINE
  5
337
330
1D
100
AcDbEntity
  8
_0-1_荳_闊_
  6
Continuous
 62
     7
100
AcDbLine
 10
2866.026349936167
 20
1618.762661826654
 30
0.0
 11
2816.026349936167
 21
1647.630175286133
 31
0.0
  0
LINE
  5
338
330
1D
100
AcDbEntity
  8
_0-1_荳_闊_
  6
Continuous
 62
     7
100
AcDbLine
 10
2820.533485029882
 20
1645.027979626502
 30
0.0
 11
2816.026349936167
 21
1640.520844532789
 31
0.0
  0
LINE
  5
339
330
1D
100
AcDbEntity
  8
_0-1_荳_闊_
  6
Continuous
 62
     7
100
AcDbLine
 10
2866.026349936167
 20
1625.87199258
 30
0.0
 11
2861.519214842452
 21
1621.364857486285
 31
0.0
  0
LINE
  5
33A
330
1D
100
AcDbEntity
  8
_0-1_荳_闊_
  6
Continuous
 62
     7
100
AcDbLine
 10
2866.026349936167
 20
1664.754832547203
 30
0.0
 11
2816.026349936167
 21
1693.622346006681
 31
0.0
  0
LINE
  5
33B
330
1D
100
AcDbEntity
  8
_0-1_荳_闊_
  6
Continuous
 62
     7
100
AcDbLine
 10
2820.533485029882
 20
1691.020150347051
 30
0.0
 11
2816.026349936167
 21
1686.513015253336
 31
0.0
  0
LINE
  5
33C
330
1D
100
AcDbEntity
  8
_0-1_荳_闊_
  6
Continuous
 62
     7
100
AcDbLine
 10
2866.026349936167
 20
1671.864163300548
 30
0.0
 11
2861.519214842452
 21
1667.357028206832
 31
0.0
  0
LINE
  5
33D
330
1D
100
AcDbEntity
  8
_0-1_荳_闊_
  6
Continuous
 62
     7
100
AcDbLine
 10
2866.026349936167
 20
1715.194563435071
 30
0.0
 11
2816.026349936167
 21
1744.062076894548
 31
0.0
  0
LINE
  5
33E
330
1D
100
AcDbEntity
  8
_0-1_荳_闊_
  6
Continuous
 62
     7
100
AcDbLine
 10
2820.533485029882
 20
1741.459881234919
 30
0.0
 11
2816.026349936167
 21
1736.952746141204
 31
0.0
  0
LINE
  5
33F
330
1D
100
AcDbEntity
  8
_0-1_荳_闊_
  6
Continuous
 62
     7
100
AcDbLine
 10
2866.026349936167
 20
1722.303894188415
 30
0.0
 11
2861.519214842452
 21
1717.7967590947
 31
0.0
  0
LINE
  5
340
330
1D
100
AcDbEntity
  8
_0-1_荳_闊_
  6
Continuous
 62
     7
100
AcDbLine
 10
2816.026349936167
 20
1668.019567224862
 30
0.0
 11
2816.292910353182
 21
1667.753006807847
 31
0.0
  0
INSERT
  5
341
330
1D
100
AcDbEntity
  8
_0-2_蟇_豕__
100
AcDbBlockReference
  2
-017-_D18
 10
1179.7910750807
 20
949.483848826528
 30
0.0
  0
INSERT
  5
342
330
1D
100
AcDbEntity
  8
_0-8__0-2_蟇_豕__ts
100
AcDbBlockReference
  2
-018-_D19
 10
1179.7910750807
 20
949.483848826528
 30
0.0
  0
INSERT
  5
343
330
1D
100
AcDbEntity
  8
_0-9__0-2_蟇_豕___2-1
100
AcDbBlockReference
  2
-019-_D20
 10
1179.7910750807
 20
949.483848826528
 30
0.0
  0
LINE
  5
344
330
1D
100
AcDbEntity
  8
_0-1_荳_闊_
  6
繝_繧_繝_繧_繧_繝__17
 62
     7
100
AcDbLine
 10
2516.026349936167
 20
142.5659385251378
 30
0.0
 11
1896.026349936168
 21
142.5659385251378
 31
0.0
  0
LINE
  5
345
330
1D
100
AcDbEntity
  8
_0-1_荳_闊_
  6
Continuous
 62
     7
100
AcDbLine
 10
1866.026349936167
 20
82.56593852513788
 30
0.0
 11
2516.026349936167
 21
107.5659385251379
 31
0.0
  0
LINE
  5
346
330
1D
100
AcDbEntity
  8
_0-1_荳_闊_
  6
Continuous
 62
     7
100
AcDbLine
 10
1866.026349936167
 20
202.5659385251379
 30
0.0
 11
1866.026349936167
 21
82.56593852513788
 31
0.0
  0
LINE
  5
347
330
1D
100
AcDbEntity
  8
_0-1_荳_闊_
  6
Continuous
 62
     7
100
AcDbLine
 10
2516.026349936167
 20
177.5659385251379
 30
0.0
 11
1866.026349936167
 21
202.5659385251379
 31
0.0
  0
LINE
  5
348
330
1D
100
AcDbEntity
  8
_0-1_荳_闊_
  6
Continuous
 62
     7
100
AcDbLine
 10
2516.026349936167
 20
107.5659385251379
 30
0.0
 11
2516.026349936167
 21
177.5659385251379
 31
0.0
  0
LINE
  5
349
330
1D
100
AcDbEntity
  8
_0-1_荳_闊_
  6
繝_繧_繝_繧_繧_繝__17
 62
     7
100
AcDbLine
 10
2516.026349936167
 20
142.5659385251378
 30
0.0
 11
1866.026349936167
 21
142.5659385251378
 31
0.0
  0
LINE
  5
34A
330
1D
100
AcDbEntity
  8
_0-1_荳_闊_
  6
繝_繧_繝_繧_繧_繝__24
 62
     7
100
AcDbLine
 10
2131.026349936168
 20
95.06593852513788
 30
0.0
 11
2131.026349936168
 21
190.0659385251379
 31
0.0
  0
LINE
  5
34B
330
1D
100
AcDbEntity
  8
_0-1_荳_闊_
  6
繝_繧_繝_繧_繧_繝__24
 62
     7
100
AcDbLine
 10
2131.026349936168
 20
190.0659385251379
 30
0.0
 11
2135.526349936168
 21
190.0659385251379
 31
0.0
  0
LINE
  5
34C
330
1D
100
AcDbEntity
  8
_0-1_荳_闊_
  6
繝_繧_繝_繧_繧_繝__24
 62
     7
100
AcDbLine
 10
2135.526349936168
 20
190.0659385251379
 30
0.0
 11
2135.526349936168
 21
95.06593852513788
 31
0.0
  0
LINE
  5
34D
330
1D
100
AcDbEntity
  8
_0-1_荳_闊_
  6
繝_繧_繝_繧_繧_繝__24
 62
     7
100
AcDbLine
 10
2135.526349936168
 20
95.06593852513788
 30
0.0
 11
2131.026349936168
 21
95.06593852513788
 31
0.0
  0
LINE
  5
34E
330
1D
100
AcDbEntity
  8
_0-1_荳_闊_
  6
繝_繧_繝_繧_繧_繝__24
 62
     7
100
AcDbLine
 10
2101.026349936168
 20
140.0479006739674
 30
0.0
 11
2101.026349936168
 21
145.0839763763081
 31
0.0
  0
LINE
  5
34F
330
1D
100
AcDbEntity
  8
_0-1_荳_闊_
  6
繝_繧_繝_繧_繧_繝__24
 62
     7
100
AcDbLine
 10
2101.026349936168
 20
145.0839763763081
 30
0.0
 11
2131.026349936168
 21
145.0839763763081
 31
0.0
  0
LINE
  5
350
330
1D
100
AcDbEntity
  8
_0-1_荳_闊_
  6
繝_繧_繝_繧_繧_繝__24
 62
     7
100
AcDbLine
 10
2131.026349936168
 20
145.0839763763081
 30
0.0
 11
2131.026349936168
 21
140.0479006739674
 31
0.0
  0
LINE
  5
351
330
1D
100
AcDbEntity
  8
_0-1_荳_闊_
  6
繝_繧_繝_繧_繧_繝__24
 62
     7
100
AcDbLine
 10
2131.026349936168
 20
140.0479006739674
 30
0.0
 11
2101.026349936168
 21
140.0479006739674
 31
0.0
  0
LINE
  5
352
330
1D
100
AcDbEntity
  8
_0-1_荳_闊_
  6
繝_繧_繝_繧_繧_繝__24
 62
     7
100
AcDbLine
 10
1872.526349936167
 20
82.56593852513788
 30
0.0
 11
1872.526349936167
 21
202.5659385251379
 31
0.0
  0
LINE
  5
353
330
1D
100
AcDbEntity
  8
_0-1_荳_闊_
  6
繝_繧_繝_繧_繧_繝__24
 62
     7
100
AcDbLine
 10
2510.026350665711
 20
107.3844869122345
 30
0.0
 11
2510.026350665711
 21
177.7473901380408
 31
0.0
  0
INSERT
  5
354
330
1D
100
AcDbEntity
  8
_0-8__0-2_蟇_豕__ts
100
AcDbBlockReference
  2
-020-_D21
 10
1179.7910750807
 20
949.483848826528
 30
0.0
  0
LINE
  5
355
330
1D
100
AcDbEntity
  8
_0-1_荳_闊_
  6
Continuous
 62
     7
100
AcDbLine
 10
2135.526349936168
 20
1192.497919040528
 30
0.0
 11
2135.526349936168
 21
1680.497919040528
 31
0.0
  0
LINE
  5
356
330
1D
100
AcDbEntity
  8
_0-1_荳_闊_
  6
Continuous
 62
     7
100
AcDbLine
 10
2135.526349936168
 20
166.3159385251379
 30
0.0
 11
2201.678122973211
 21
232.4677115621812
 31
0.0
  0
LINE
  5
357
330
1D
100
AcDbEntity
  8
_0-1_荳_闊_
  6
Continuous
 62
     7
100
AcDbLine
 10
2201.678122973211
 20
232.4677115621812
 30
0.0
 11
2201.678122973211
 21
294.8402879276573
 31
0.0
  0
LINE
  5
358
330
1D
100
AcDbEntity
  8
_0-1_荳_闊_
  6
Continuous
 62
     7
100
AcDbLine
 10
1987.678122973211
 20
174.8402879276573
 30
0.0
 11
1927.678122973211
 21
234.8402879276573
 31
0.0
  0
LINE
  5
359
330
1D
100
AcDbEntity
  8
_0-1_荳_闊_
  6
Continuous
 62
     7
100
AcDbLine
 10
1927.678122973211
 20
234.8402879276573
 30
0.0
 11
1927.678122973211
 21
294.8402879276573
 31
0.0
  0
INSERT
  5
35A
330
1D
100
AcDbEntity
  8
_0-9__0-2_蟇_豕___2-1
100
AcDbBlockReference
  2
-021-_D22
 10
1179.7910750807
 20
949.483848826528
 30
0.0
  0
INSERT
  5
35B
330
1D
100
AcDbEntity
  8
_0-2_蟇_豕__
100
AcDbBlockReference
  2
-022-_D23
 10
1179.7910750807
 20
949.483848826528
 30
0.0
  0
INSERT
  5
35C
330
1D
100
AcDbEntity
  8
_0-8__0-2_蟇_豕__ts
100
AcDbBlockReference
  2
-023-_D24
 10
1179.7910750807
 20
949.483848826528
 30
0.0
  0
INSERT
  5
35D
330
1D
100
AcDbEntity
  8
_0-8__0-2_蟇_豕__ts
100
AcDbBlockReference
  2
-024-_D25
 10
1179.7910750807
 20
949.483848826528
 30
0.0
  0
INSERT
  5
35E
330
1D
100
AcDbEntity
  8
_0-8__0-2_蟇_豕__ts
100
AcDbBlockReference
  2
-025-_D26
 10
1179.7910750807
 20
949.483848826528
 30
0.0
  0
INSERT
  5
35F
330
1D
100
AcDbEntity
  8
_0-8__0-2_蟇_豕__ts
100
AcDbBlockReference
  2
-026-_D27
 10
1179.7910750807
 20
949.483848826528
 30
0.0
  0
LINE
  5
360
330
1D
100
AcDbEntity
  8
_0-1_荳_闊_
  6
Continuous
 62
     7
100
AcDbLine
 10
2502.026349206623
 20
1227.49791904086
 30
0.0
 11
2502.026349206623
 21
1245.49791904086
 31
0.0
  0
LINE
  5
361
330
1D
100
AcDbEntity
  8
_0-1_荳_闊_
  6
Continuous
 62
     7
100
AcDbLine
 10
2502.026349206623
 20
1245.49791904086
 30
0.0
 11
2510.026349206623
 21
1245.49791904086
 31
0.0
  0
LINE
  5
362
330
1D
100
AcDbEntity
  8
_0-1_荳_闊_
  6
Continuous
 62
     7
100
AcDbLine
 10
2510.026349206623
 20
1245.49791904086
 30
0.0
 11
2510.026349206623
 21
1227.49791904086
 31
0.0
  0
LINE
  5
363
330
1D
100
AcDbEntity
  8
_0-1_荳_闊_
  6
Continuous
 62
     7
100
AcDbLine
 10
2510.026349206623
 20
1227.49791904086
 30
0.0
 11
2502.026349206623
 21
1227.49791904086
 31
0.0
  0
LINE
  5
364
330
1D
100
AcDbEntity
  8
_0-1_荳_闊_
  6
Continuous
 62
     7
100
AcDbLine
 10
2502.026349936167
 20
133.5659385251376
 30
0.0
 11
2502.026349936167
 21
151.5659385251376
 31
0.0
  0
LINE
  5
365
330
1D
100
AcDbEntity
  8
_0-1_荳_闊_
  6
Continuous
 62
     7
100
AcDbLine
 10
2502.026349936167
 20
151.5659385251376
 30
0.0
 11
2510.026349936167
 21
151.5659385251376
 31
0.0
  0
LINE
  5
366
330
1D
100
AcDbEntity
  8
_0-1_荳_闊_
  6
Continuous
 62
     7
100
AcDbLine
 10
2510.026349936167
 20
151.5659385251376
 30
0.0
 11
2510.026349936167
 21
133.5659385251376
 31
0.0
  0
LINE
  5
367
330
1D
100
AcDbEntity
  8
_0-1_荳_闊_
  6
Continuous
 62
     7
100
AcDbLine
 10
2510.026349936167
 20
133.5659385251376
 30
0.0
 11
2502.026349936167
 21
133.5659385251376
 31
0.0
  0
LINE
  5
368
330
1D
100
AcDbEntity
  8
_0-1_荳_闊_
  6
Continuous
 62
     7
100
AcDbLine
 10
2516.026349936167
 20
136.7401411882244
 30
0.0
 11
2516.026349936167
 21
148.720002944684
 31
0.0
  0
LINE
  5
369
330
1D
100
AcDbEntity
  8
_0-1_荳_闊_
  6
Continuous
 62
     7
100
AcDbLine
 10
2516.026349936167
 20
148.720002944684
 30
0.0
 11
2551.026349936167
 21
148.720002944684
 31
0.0
  0
LINE
  5
36A
330
1D
100
AcDbEntity
  8
_0-1_荳_闊_
  6
Continuous
 62
     7
100
AcDbLine
 10
2551.026349936167
 20
148.720002944684
 30
0.0
 11
2551.026349936167
 21
136.7401411882244
 31
0.0
  0
LINE
  5
36B
330
1D
100
AcDbEntity
  8
_0-1_荳_闊_
  6
Continuous
 62
     7
100
AcDbLine
 10
2551.026349936167
 20
136.7401411882244
 30
0.0
 11
2516.026349936167
 21
136.7401411882244
 31
0.0
  0
LINE
  5
36C
330
1D
100
AcDbEntity
  8
_0-1_荳_闊_
  6
繝_繧_繝_繧_繧_繝__17
 62
     7
100
AcDbLine
 10
2502.026349936167
 20
142.5659385251376
 30
0.0
 11
2551.026349936167
 21
142.7353775869017
 31
0.0
  0
LINE
  5
36D
330
1D
100
AcDbEntity
  8
_0-1_荳_闊_
  6
Continuous
 62
     7
100
AcDbLine
 10
2516.026349206624
 20
1230.507988162631
 30
0.0
 11
2516.026349206624
 21
1242.48784991909
 31
0.0
  0
LINE
  5
36E
330
1D
100
AcDbEntity
  8
_0-1_荳_闊_
  6
Continuous
 62
     7
100
AcDbLine
 10
2516.026349206624
 20
1242.48784991909
 30
0.0
 11
2551.026349206623
 21
1242.48784991909
 31
0.0
  0
LINE
  5
36F
330
1D
100
AcDbEntity
  8
_0-1_荳_闊_
  6
Continuous
 62
     7
100
AcDbLine
 10
2551.026349206623
 20
1242.48784991909
 30
0.0
 11
2551.026349206623
 21
1230.507988162631
 31
0.0
  0
LINE
  5
370
330
1D
100
AcDbEntity
  8
_0-1_荳_闊_
  6
Continuous
 62
     7
100
AcDbLine
 10
2551.026349206623
 20
1230.507988162631
 30
0.0
 11
2516.026349206624
 21
1230.507988162631
 31
0.0
  0
LINE
  5
371
330
1D
100
AcDbEntity
  8
_0-1_荳_闊_
  6
繝_繧_繝_繧_繧_繝__17
 62
     7
100
AcDbLine
 10
2502.026349206623
 20
1236.351690976778
 30
0.0
 11
2551.026349206623
 21
1236.49791904086
 31
0.0
  0
LINE
  5
372
330
1D
100
AcDbEntity
  8
_0-1_荳_闊_
  6
Continuous
 62
     7
100
AcDbLine
 10
2502.026349206623
 20
1627.49791904086
 30
0.0
 11
2502.026349206623
 21
1645.49791904086
 31
0.0
  0
LINE
  5
373
330
1D
100
AcDbEntity
  8
_0-1_荳_闊_
  6
Continuous
 62
     7
100
AcDbLine
 10
2502.026349206623
 20
1645.49791904086
 30
0.0
 11
2510.026349206623
 21
1645.49791904086
 31
0.0
  0
LINE
  5
374
330
1D
100
AcDbEntity
  8
_0-1_荳_闊_
  6
Continuous
 62
     7
100
AcDbLine
 10
2510.026349206623
 20
1645.49791904086
 30
0.0
 11
2510.026349206623
 21
1627.49791904086
 31
0.0
  0
LINE
  5
375
330
1D
100
AcDbEntity
  8
_0-1_荳_闊_
  6
Continuous
 62
     7
100
AcDbLine
 10
2510.026349206623
 20
1627.49791904086
 30
0.0
 11
2502.026349206623
 21
1627.49791904086
 31
0.0
  0
LINE
  5
376
330
1D
100
AcDbEntity
  8
_0-1_荳_闊_
  6
Continuous
 62
     7
100
AcDbLine
 10
2516.026349206624
 20
1630.672121703947
 30
0.0
 11
2516.026349206624
 21
1642.651983460407
 31
0.0
  0
LINE
  5
377
330
1D
100
AcDbEntity
  8
_0-1_荳_闊_
  6
Continuous
 62
     7
100
AcDbLine
 10
2516.026349206624
 20
1642.651983460407
 30
0.0
 11
2551.026349206623
 21
1642.651983460407
 31
0.0
  0
LINE
  5
378
330
1D
100
AcDbEntity
  8
_0-1_荳_闊_
  6
Continuous
 62
     7
100
AcDbLine
 10
2551.026349206623
 20
1642.651983460407
 30
0.0
 11
2551.026349206623
 21
1630.672121703947
 31
0.0
  0
LINE
  5
379
330
1D
100
AcDbEntity
  8
_0-1_荳_闊_
  6
Continuous
 62
     7
100
AcDbLine
 10
2551.026349206623
 20
1630.672121703947
 30
0.0
 11
2516.026349206624
 21
1630.672121703947
 31
0.0
  0
LINE
  5
37A
330
1D
100
AcDbEntity
  8
_0-1_荳_闊_
  6
繝_繧_繝_繧_繧_繝__17
 62
     7
100
AcDbLine
 10
2502.026349206623
 20
1636.49791904086
 30
0.0
 11
2551.026349206623
 21
1636.667358102625
 31
0.0
  0
LINE
  5
37B
330
1D
100
AcDbEntity
  8
_0-1_荳_闊_
  6
Continuous
 62
     7
100
AcDbLine
 10
1866.026349936167
 20
1228.997919040528
 30
0.0
 11
1866.026349936167
 21
1436.497919040528
 31
0.0
  0
LINE
  5
37C
330
1D
100
AcDbEntity
  8
_0-1_荳_闊_
  6
Continuous
 62
     7
100
AcDbLine
 10
1866.026349936167
 20
1643.997919040528
 30
0.0
 11
1866.026349936167
 21
1436.497919040528
 31
0.0
  0
LINE
  5
37D
330
1D
100
AcDbEntity
  8
_0-1_荳_闊_
  6
Continuous
 62
     7
100
AcDbLine
 10
1866.026349936167
 20
1643.997919040528
 30
0.0
 11
1866.026349936167
 21
1436.497919040528
 31
0.0
  0
LINE
  5
37E
330
1D
100
AcDbEntity
  8
_0-1_荳_闊_
  6
Continuous
 62
     7
100
AcDbLine
 10
1866.026349936167
 20
1215.997919040528
 30
0.0
 11
1866.026349936167
 21
1639.728253482731
 31
0.0
  0
LINE
  5
37F
330
1D
100
AcDbEntity
  8
_0-1_荳_闊_
  6
Continuous
 62
     7
100
AcDbLine
 10
2490.026349936167
 20
1186.497919040528
 30
0.0
 11
1892.026349936168
 21
1186.497919040528
 31
0.0
  0
LINE
  5
380
330
1D
100
AcDbEntity
  8
_0-1_荳_闊_
  6
Continuous
 62
     7
100
AcDbLine
 10
2516.026349936167
 20
1654.869889297921
 30
0.0
 11
2516.026349936167
 21
1206.86988929792
 31
0.0
  0
LINE
  5
381
330
1D
100
AcDbEntity
  8
_0-1_荳_闊_
  6
Continuous
 62
     7
100
AcDbLine
 10
1892.026349936168
 20
1686.497919040528
 30
0.0
 11
2490.026349936167
 21
1686.497919040528
 31
0.0
  0
LINE
  5
382
330
1D
100
AcDbEntity
  8
_0-1_荳_闊_
  6
Continuous
 62
     7
100
AcDbLine
 10
1866.026349936168
 20
1212.497919040528
 30
0.0
 11
1866.026349936168
 21
1660.497919040528
 31
0.0
  0
LINE
  5
383
330
1D
100
AcDbEntity
  8
_0-1_荳_闊_
  6
Continuous
 62
     7
100
AcDbLine
 10
2490.026349936167
 20
1192.497919040528
 30
0.0
 11
1892.026349936167
 21
1192.497919040528
 31
0.0
  0
LINE
  5
384
330
1D
100
AcDbEntity
  8
_0-1_荳_闊_
  6
Continuous
 62
     7
100
AcDbLine
 10
2510.026349936167
 20
1660.497919040528
 30
0.0
 11
2510.026349936167
 21
1212.497919040528
 31
0.0
  0
LINE
  5
385
330
1D
100
AcDbEntity
  8
_0-1_荳_闊_
  6
Continuous
 62
     7
100
AcDbLine
 10
1892.026349936167
 20
1680.497919040528
 30
0.0
 11
2490.026349936167
 21
1680.497919040528
 31
0.0
  0
ARC
  5
386
330
1D
100
AcDbEntity
  8
_0-1_荳_闊_
  6
Continuous
 62
     7
100
AcDbCircle
 10
1892.026349936168
 20
1212.497919040528
 30
0.0
 40
20.0
100
AcDbArc
 50
180.0
 51
270.0
  0
ARC
  5
387
330
1D
100
AcDbEntity
  8
_0-1_荳_闊_
  6
Continuous
 62
     7
100
AcDbCircle
 10
1892.026349936168
 20
1212.497919040528
 30
0.0
 40
26.0
100
AcDbArc
 50
180.0
 51
270.0
  0
ARC
  5
388
330
1D
100
AcDbEntity
  8
_0-1_荳_闊_
  6
Continuous
 62
     7
100
AcDbCircle
 10
1892.026349936168
 20
1660.497919040528
 30
0.0
 40
26.0
100
AcDbArc
 50
90.0
 51
180.0
  0
ARC
  5
389
330
1D
100
AcDbEntity
  8
_0-1_荳_闊_
  6
Continuous
 62
     7
100
AcDbCircle
 10
2490.026349936167
 20
1660.497919040528
 30
0.0
 40
26.0
100
AcDbArc
 50
0.0
 51
90.0
  0
ARC
  5
38A
330
1D
100
AcDbEntity
  8
_0-1_荳_闊_
  6
Continuous
 62
     7
100
AcDbCircle
 10
2490.026349936167
 20
1212.497919040528
 30
0.0
 40
25.99999999999997
100
AcDbArc
 50
270.0
 51
0.0
  0
ARC
  5
38B
330
1D
100
AcDbEntity
  8
_0-1_荳_闊_
  6
Continuous
 62
     7
100
AcDbCircle
 10
2490.026349936167
 20
1212.497919040528
 30
0.0
 40
19.99999999999997
100
AcDbArc
 50
270.0
 51
0.0
  0
ARC
  5
38C
330
1D
100
AcDbEntity
  8
_0-1_荳_闊_
  6
Continuous
 62
     7
100
AcDbCircle
 10
2490.026349936167
 20
1660.497919040528
 30
0.0
 40
20.0
100
AcDbArc
 50
0.0
 51
90.0
  0
ARC
  5
38D
330
1D
100
AcDbEntity
  8
_0-1_荳_闊_
  6
Continuous
 62
     7
100
AcDbCircle
 10
1892.026349936168
 20
1660.497919040528
 30
0.0
 40
20.0
100
AcDbArc
 50
90.0
 51
180.0
  0
LINE
  5
38E
330
1D
100
AcDbEntity
  8
_0-1_荳_闊_
  6
Continuous
 62
     7
100
AcDbLine
 10
1877.884214312436
 20
1198.355783416797
 30
0.0
 11
1892.026349936168
 21
1212.497919040528
 31
0.0
  0
LINE
  5
38F
330
1D
100
AcDbEntity
  8
_0-1_荳_闊_
  6
Continuous
 62
     7
100
AcDbLine
 10
1892.026349936168
 20
1212.497919040528
 30
0.0
 11
1892.026349936168
 21
1240.805399799918
 31
0.0
  0
LINE
  5
390
330
1D
100
AcDbEntity
  8
_0-1_荳_闊_
  6
Continuous
 62
     7
100
AcDbLine
 10
2101.026349936168
 20
1214.497919040528
 30
0.0
 11
2131.026349936168
 21
1214.497919040528
 31
0.0
  0
LINE
  5
391
330
1D
100
AcDbEntity
  8
_0-1_荳_闊_
  6
Continuous
 62
     7
100
AcDbLine
 10
2131.026349936168
 20
1214.497919040528
 30
0.0
 11
2131.015263461667
 21
192.3740572356956
 31
0.0
  0
LINE
  5
392
330
1D
100
AcDbEntity
  8
_0-1_荳_闊_
  6
Continuous
 62
     7
100
AcDbLine
 10
2131.015263461667
 20
192.3740572356956
 30
0.0
 11
2101.026349936168
 21
193.5274769866763
 31
0.0
  0
LINE
  5
393
330
1D
100
AcDbEntity
  8
_0-1_荳_闊_
  6
Continuous
 62
     7
100
AcDbLine
 10
2101.026349936168
 20
193.5274769866763
 30
0.0
 11
2101.026349936168
 21
1214.497919040528
 31
0.0
  0
INSERT
  5
394
330
1D
100
AcDbEntity
  8
_0-2_蟇_豕__
100
AcDbBlockReference
  2
-027-_D29
 10
1179.7910750807
 20
949.483848826528
 30
0.0
  0
LINE
  5
395
330
1D
100
AcDbEntity
  8
_0-1_荳_闊_
  6
Continuous
 62
     7
100
AcDbLine
 10
-48.98680237219264
 20
149.8159385251369
 30
0.0
 11
-48.98680237219355
 21
144.8159385251369
 31
0.0
  0
LINE
  5
396
330
1D
100
AcDbEntity
  8
_0-1_荳_闊_
  6
繝_繧_繝_繧_繧_繝__24
 62
     7
100
AcDbLine
 10
1258.13148226326
 20
1263.99791904074
 30
0.0
 11
1263.13148226326
 21
1263.997919040741
 31
0.0
  0
ARC
  5
397
330
1D
100
AcDbEntity
  8
_0-1_荳_闊_
  6
繝_繧_繝_繧_繧_繝__24
 62
     7
100
AcDbCircle
 10
1263.131482263262
 20
1256.497919040741
 30
0.0
 40
7.5
100
AcDbArc
 50
270.0000000000096
 51
90.00000000000955
  0
LINE
  5
398
330
1D
100
AcDbEntity
  8
_0-1_荳_闊_
  6
繝_繧_繝_繧_繧_繝__24
 62
     7
100
AcDbLine
 10
1263.131482263263
 20
1248.99791904074
 30
0.0
 11
1258.131482263263
 21
1248.99791904074
 31
0.0
  0
LINE
  5
399
330
1D
100
AcDbEntity
  8
_0-1_荳_闊_
  6
繝_繧_繝_繧_繧_繝__24
 62
     7
100
AcDbLine
 10
1258.131482263263
 20
1248.99791904074
 30
0.0
 11
1258.13148226326
 21
1263.99791904074
 31
0.0
  0
LINE
  5
39A
330
1D
100
AcDbEntity
  8
_0-1_荳_闊_
  6
繝_繧_繝_繧_繧_繝__24
 62
     7
100
AcDbLine
 10
1258.131482263204
 20
1608.99791904074
 30
0.0
 11
1263.131482263204
 21
1608.997919040741
 31
0.0
  0
ARC
  5
39B
330
1D
100
AcDbEntity
  8
_0-1_荳_闊_
  6
繝_繧_繝_繧_繧_繝__24
 62
     7
100
AcDbCircle
 10
1263.131482263203
 20
1616.497919040741
 30
0.0
 40
7.5
100
AcDbArc
 50
270.0000000000104
 51
90.00000000001035
  0
LINE
  5
39C
330
1D
100
AcDbEntity
  8
_0-1_荳_闊_
  6
繝_繧_繝_繧_繧_繝__24
 62
     7
100
AcDbLine
 10
1263.131482263202
 20
1623.997919040741
 30
0.0
 11
1258.131482263201
 21
1623.99791904074
 31
0.0
  0
LINE
  5
39D
330
1D
100
AcDbEntity
  8
_0-1_荳_闊_
  6
繝_繧_繝_繧_繧_繝__24
 62
     7
100
AcDbLine
 10
1258.131482263201
 20
1623.99791904074
 30
0.0
 11
1258.131482263204
 21
1608.99791904074
 31
0.0
  0
LINE
  5
39E
330
1D
100
AcDbEntity
  8
_0-1_荳_闊_
  6
繝_繧_繝_繧_繧_繝__24
 62
     7
100
AcDbLine
 10
483.3814822632247
 20
1653.497919040481
 30
0.0
 11
523.3814822632247
 21
1653.497919040481
 31
0.0
  0
LINE
  5
39F
330
1D
100
AcDbEntity
  8
_0-1_荳_闊_
  6
繝_繧_繝_繧_繧_繝__24
 62
     7
100
AcDbLine
 10
523.3814822632247
 20
1653.497919040481
 30
0.0
 11
523.3814822632247
 21
1219.497919040481
 31
0.0
  0
LINE
  5
3A0
330
1D
100
AcDbEntity
  8
_0-1_荳_闊_
  6
繝_繧_繝_繧_繧_繝__24
 62
     7
100
AcDbLine
 10
523.3814822632247
 20
1219.497919040481
 30
0.0
 11
483.3814822632247
 21
1219.497919040481
 31
0.0
  0
LINE
  5
3A1
330
1D
100
AcDbEntity
  8
_0-1_荳_闊_
  6
繝_繧_繝_繧_繧_繝__24
 62
     7
100
AcDbLine
 10
483.3814822632247
 20
1219.497919040481
 30
0.0
 11
483.3814822632247
 21
1653.497919040481
 31
0.0
  0
LINE
  5
3A2
330
1D
100
AcDbEntity
  8
_0-1_荳_闊_
  6
繝_繧_繝_繧_繧_繝__24
 62
     7
100
AcDbLine
 10
1258.381482263224
 20
1658.497919040729
 30
0.0
 11
1262.881482263224
 21
1658.497919040729
 31
0.0
  0
LINE
  5
3A3
330
1D
100
AcDbEntity
  8
_0-1_荳_闊_
  6
繝_繧_繝_繧_繧_繝__24
 62
     7
100
AcDbLine
 10
1262.881482263224
 20
1658.497919040729
 30
0.0
 11
1262.881482263224
 21
1214.497919040729
 31
0.0
  0
LINE
  5
3A4
330
1D
100
AcDbEntity
  8
_0-1_荳_闊_
  6
繝_繧_繝_繧_繧_繝__24
 62
     7
100
AcDbLine
 10
1262.881482263224
 20
1214.497919040729
 30
0.0
 11
1258.381482263224
 21
1214.497919040729
 31
0.0
  0
LINE
  5
3A5
330
1D
100
AcDbEntity
  8
_0-1_荳_闊_
  6
繝_繧_繝_繧_繧_繝__24
 62
     7
100
AcDbLine
 10
1258.381482263224
 20
1214.497919040729
 30
0.0
 11
1258.381482263224
 21
1658.497919040729
 31
0.0
  0
INSERT
  5
3A6
330
1D
100
AcDbEntity
  8
_0-1_荳_闊_
100
AcDbBlockReference
  2
-028-繧_繝_繝_繝__4-1
 10
1181.555167287535
 20
952.4088051140589
 30
0.0
  0
LINE
  5
3A7
330
1D
100
AcDbEntity
  8
_0-1_荳_闊_
  6
繝_繧_繝_繧_繧_繝__24
 62
     7
100
AcDbLine
 10
-250.3004982522375
 20
879.8159385250732
 30
0.0
 11
-250.3004982522375
 21
919.8159385251424
 31
0.0
  0
LINE
  5
3A8
330
1D
100
AcDbEntity
  8
_0-1_荳_闊_
  6
繝_繧_繝_繧_繧_繝__24
 62
     7
100
AcDbLine
 10
-250.3004982522375
 20
919.8159385251424
 30
0.0
 11
183.6995017477629
 21
919.8159385251424
 31
0.0
  0
LINE
  5
3A9
330
1D
100
AcDbEntity
  8
_0-1_荳_闊_
  6
繝_繧_繝_繧_繧_繝__24
 62
     7
100
AcDbLine
 10
183.6995017477629
 20
919.8159385251424
 30
0.0
 11
183.6995017477629
 21
879.8159385250732
 31
0.0
  0
LINE
  5
3AA
330
1D
100
AcDbEntity
  8
_0-1_荳_闊_
  6
繝_繧_繝_繧_繧_繝__24
 62
     7
100
AcDbLine
 10
183.6995017477629
 20
879.8159385250732
 30
0.0
 11
-250.3004982522375
 21
879.8159385250732
 31
0.0
  0
LINE
  5
3AB
330
1D
100
AcDbEntity
  8
_0-1_荳_闊_
  6
繝_繧_繝_繧_繧_繝__24
 62
     7
100
AcDbLine
 10
-255.3004982523605
 20
140.3159385250724
 30
0.0
 11
-255.3004982523605
 21
144.8159385251433
 31
0.0
  0
LINE
  5
3AC
330
1D
100
AcDbEntity
  8
_0-1_荳_闊_
  6
繝_繧_繝_繧_繧_繝__24
 62
     7
100
AcDbLine
 10
-255.3004982523605
 20
144.8159385251433
 30
0.0
 11
188.6995017476397
 21
144.8159385251433
 31
0.0
  0
LINE
  5
3AD
330
1D
100
AcDbEntity
  8
_0-1_荳_闊_
  6
繝_繧_繝_繧_繧_繝__24
 62
     7
100
AcDbLine
 10
188.6995017476397
 20
144.8159385251433
 30
0.0
 11
188.6995017476397
 21
140.3159385250724
 31
0.0
  0
LINE
  5
3AE
330
1D
100
AcDbEntity
  8
_0-1_荳_闊_
  6
繝_繧_繝_繧_繧_繝__24
 62
     7
100
AcDbLine
 10
188.6995017476397
 20
140.3159385250724
 30
0.0
 11
-255.3004982523605
 21
140.3159385250724
 31
0.0
  0
INSERT
  5
3AF
330
1D
100
AcDbEntity
  8
_0-8__0-2_蟇_豕__ts
100
AcDbBlockReference
  2
-029-_D31
 10
1179.7910750807
 20
949.483848826528
 30
0.0
  0
LINE
  5
3B0
330
1D
100
AcDbEntity
  8
_0-1_荳_闊_
  6
Continuous
 62
     7
100
AcDbLine
 10
-195.6185177367756
 20
1601.997919040482
 30
0.0
 11
-72.20892491929544
 21
1715.2760386359
 31
0.0
  0
LINE
  5
3B1
330
1D
100
AcDbEntity
  8
_0-1_荳_闊_
  6
Continuous
 62
     7
100
AcDbLine
 10
-72.20892491929544
 20
1715.2760386359
 30
0.0
 11
-72.20892491929544
 21
1927.990101915517
 31
0.0
  0
LINE
  5
3B2
330
1D
100
AcDbEntity
  8
_0-1_荳_闊_
  6
Continuous
 62
     7
100
AcDbLine
 10
506.2466789619596
 20
1249.56647099366
 30
0.0
 11
594.6562717794393
 21
1144.239126878359
 31
0.0
  0
LINE
  5
3B3
330
1D
100
AcDbEntity
  8
_0-1_荳_闊_
  6
Continuous
 62
     7
100
AcDbLine
 10
594.6562717794393
 20
1144.239126878359
 30
0.0
 11
594.6562717794393
 21
1070.239126878359
 31
0.0
  0
LINE
  5
3B4
330
1D
100
AcDbEntity
  8
_0-1_荳_闊_
  6
Continuous
 62
     7
100
AcDbLine
 10
361.9074097250217
 20
450.1825495851912
 30
0.0
 11
361.9074097250217
 21
500.3296634954373
 31
0.0
  0
LINE
  5
3B5
330
1D
100
AcDbEntity
  8
_0-1_荳_闊_
  6
Continuous
 62
     7
100
AcDbLine
 10
361.9074097250217
 20
450.1825495851912
 30
0.0
 11
172.4932651252134
 21
319.7362028731627
 31
0.0
  0
INSERT
  5
3B6
330
1D
100
AcDbEntity
  8
_0-1_荳_闊_
100
AcDbBlockReference
  2
-030-繧_繝_繝_繝__5-1
 10
1181.555167287535
 20
952.4088051140589
 30
0.0
  0
LINE
  5
3B7
330
1D
100
AcDbEntity
  8
_0-1_荳_闊_
  6
繝_繧_繝_繧_繧_繝__24
 62
     7
100
AcDbLine
 10
-254.3004982521145
 20
149.8159385251429
 30
0.0
 11
-254.3004982521145
 21
202.5659385251379
 31
0.0
  0
LINE
  5
3B8
330
1D
100
AcDbEntity
  8
_0-1_荳_闊_
  6
繝_繧_繝_繧_繧_繝__24
 62
     7
100
AcDbLine
 10
-254.3004982521145
 20
202.5659385251379
 30
0.0
 11
-204.3710827124655
 21
202.5659385251379
 31
0.0
  0
LINE
  5
3B9
330
1D
100
AcDbEntity
  8
_0-1_荳_闊_
  6
繝_繧_繝_繧_繧_繝__24
 62
     7
100
AcDbLine
 10
-204.3710827124655
 20
202.5659385251379
 30
0.0
 11
-204.3710827124655
 21
149.8159385251429
 31
0.0
  0
LINE
  5
3BA
330
1D
100
AcDbEntity
  8
_0-1_荳_闊_
  6
繝_繧_繝_繧_繧_繝__24
 62
     7
100
AcDbLine
 10
-204.3710827124655
 20
149.8159385251429
 30
0.0
 11
-254.3004982521145
 21
149.8159385251429
 31
0.0
  0
LINE
  5
3BB
330
1D
100
AcDbEntity
  8
_0-1_荳_闊_
  6
繝_繧_繝_繧_繧_繝__24
 62
     7
100
AcDbLine
 10
-198.3004982521145
 20
149.8159385251429
 30
0.0
 11
-198.3004982521145
 21
202.5659385251379
 31
0.0
  0
LINE
  5
3BC
330
1D
100
AcDbEntity
  8
_0-1_荳_闊_
  6
繝_繧_繝_繧_繧_繝__24
 62
     7
100
AcDbLine
 10
-198.3004982521145
 20
202.5659385251379
 30
0.0
 11
-148.3710827124655
 21
202.5659385251379
 31
0.0
  0
LINE
  5
3BD
330
1D
100
AcDbEntity
  8
_0-1_荳_闊_
  6
繝_繧_繝_繧_繧_繝__24
 62
     7
100
AcDbLine
 10
-148.3710827124655
 20
202.5659385251379
 30
0.0
 11
-148.3710827124655
 21
149.8159385251429
 31
0.0
  0
LINE
  5
3BE
330
1D
100
AcDbEntity
  8
_0-1_荳_闊_
  6
繝_繧_繝_繧_繧_繝__24
 62
     7
100
AcDbLine
 10
-148.3710827124655
 20
149.8159385251429
 30
0.0
 11
-198.3004982521145
 21
149.8159385251429
 31
0.0
  0
LINE
  5
3BF
330
1D
100
AcDbEntity
  8
_0-1_荳_闊_
  6
繝_繧_繝_繧_繧_繝__24
 62
     7
100
AcDbLine
 10
-142.3004982521145
 20
149.8159385251429
 30
0.0
 11
-142.3004982521145
 21
202.5659385251379
 31
0.0
  0
LINE
  5
3C0
330
1D
100
AcDbEntity
  8
_0-1_荳_闊_
  6
繝_繧_繝_繧_繧_繝__24
 62
     7
100
AcDbLine
 10
-142.3004982521145
 20
202.5659385251379
 30
0.0
 11
-92.37108271246553
 21
202.5659385251379
 31
0.0
  0
LINE
  5
3C1
330
1D
100
AcDbEntity
  8
_0-1_荳_闊_
  6
繝_繧_繝_繧_繧_繝__24
 62
     7
100
AcDbLine
 10
-92.37108271246553
 20
202.5659385251379
 30
0.0
 11
-92.37108271246553
 21
149.8159385251429
 31
0.0
  0
LINE
  5
3C2
330
1D
100
AcDbEntity
  8
_0-1_荳_闊_
  6
繝_繧_繝_繧_繧_繝__24
 62
     7
100
AcDbLine
 10
-92.37108271246553
 20
149.8159385251429
 30
0.0
 11
-142.3004982521145
 21
149.8159385251429
 31
0.0
  0
LINE
  5
3C3
330
1D
100
AcDbEntity
  8
_0-1_荳_闊_
  6
繝_繧_繝_繧_繧_繝__24
 62
     7
100
AcDbLine
 10
-86.30049825211449
 20
149.8159385251429
 30
0.0
 11
-86.30049825211449
 21
202.5659385251379
 31
0.0
  0
LINE
  5
3C4
330
1D
100
AcDbEntity
  8
_0-1_荳_闊_
  6
繝_繧_繝_繧_繧_繝__24
 62
     7
100
AcDbLine
 10
-86.30049825211449
 20
202.5659385251379
 30
0.0
 11
-36.37108271246552
 21
202.5659385251379
 31
0.0
  0
LINE
  5
3C5
330
1D
100
AcDbEntity
  8
_0-1_荳_闊_
  6
繝_繧_繝_繧_繧_繝__24
 62
     7
100
AcDbLine
 10
-36.37108271246552
 20
202.5659385251379
 30
0.0
 11
-36.37108271246552
 21
149.8159385251429
 31
0.0
  0
LINE
  5
3C6
330
1D
100
AcDbEntity
  8
_0-1_荳_闊_
  6
繝_繧_繝_繧_繧_繝__24
 62
     7
100
AcDbLine
 10
-36.37108271246552
 20
149.8159385251429
 30
0.0
 11
-86.30049825211449
 21
149.8159385251429
 31
0.0
  0
LINE
  5
3C7
330
1D
100
AcDbEntity
  8
_0-1_荳_闊_
  6
繝_繧_繝_繧_繧_繝__24
 62
     7
100
AcDbLine
 10
-30.30049825211449
 20
149.8159385251429
 30
0.0
 11
-30.30049825211449
 21
202.5659385251379
 31
0.0
  0
LINE
  5
3C8
330
1D
100
AcDbEntity
  8
_0-1_荳_闊_
  6
繝_繧_繝_繧_繧_繝__24
 62
     7
100
AcDbLine
 10
-30.30049825211449
 20
202.5659385251379
 30
0.0
 11
19.62891728753447
 21
202.5659385251379
 31
0.0
  0
LINE
  5
3C9
330
1D
100
AcDbEntity
  8
_0-1_荳_闊_
  6
繝_繧_繝_繧_繧_繝__24
 62
     7
100
AcDbLine
 10
19.62891728753447
 20
202.5659385251379
 30
0.0
 11
19.62891728753447
 21
149.8159385251429
 31
0.0
  0
LINE
  5
3CA
330
1D
100
AcDbEntity
  8
_0-1_荳_闊_
  6
繝_繧_繝_繧_繧_繝__24
 62
     7
100
AcDbLine
 10
19.62891728753447
 20
149.8159385251429
 30
0.0
 11
-30.30049825211449
 21
149.8159385251429
 31
0.0
  0
LINE
  5
3CB
330
1D
100
AcDbEntity
  8
_0-1_荳_闊_
  6
繝_繧_繝_繧_繧_繝__24
 62
     7
100
AcDbLine
 10
25.69950174788551
 20
149.8159385251429
 30
0.0
 11
25.69950174788551
 21
202.5659385251379
 31
0.0
  0
LINE
  5
3CC
330
1D
100
AcDbEntity
  8
_0-1_荳_闊_
  6
繝_繧_繝_繧_繧_繝__24
 62
     7
100
AcDbLine
 10
25.69950174788551
 20
202.5659385251379
 30
0.0
 11
75.62891728753448
 21
202.5659385251379
 31
0.0
  0
LINE
  5
3CD
330
1D
100
AcDbEntity
  8
_0-1_荳_闊_
  6
繝_繧_繝_繧_繧_繝__24
 62
     7
100
AcDbLine
 10
75.62891728753448
 20
202.5659385251379
 30
0.0
 11
75.62891728753448
 21
149.8159385251429
 31
0.0
  0
LINE
  5
3CE
330
1D
100
AcDbEntity
  8
_0-1_荳_闊_
  6
繝_繧_繝_繧_繧_繝__24
 62
     7
100
AcDbLine
 10
75.62891728753448
 20
149.8159385251429
 30
0.0
 11
25.69950174788551
 21
149.8159385251429
 31
0.0
  0
LINE
  5
3CF
330
1D
100
AcDbEntity
  8
_0-1_荳_闊_
  6
繝_繧_繝_繧_繧_繝__24
 62
     7
100
AcDbLine
 10
81.69950174788551
 20
149.8159385251429
 30
0.0
 11
81.69950174788551
 21
202.5659385251379
 31
0.0
  0
LINE
  5
3D0
330
1D
100
AcDbEntity
  8
_0-1_荳_闊_
  6
繝_繧_繝_繧_繧_繝__24
 62
     7
100
AcDbLine
 10
81.69950174788551
 20
202.5659385251379
 30
0.0
 11
131.6289172875344
 21
202.5659385251379
 31
0.0
  0
LINE
  5
3D1
330
1D
100
AcDbEntity
  8
_0-1_荳_闊_
  6
繝_繧_繝_繧_繧_繝__24
 62
     7
100
AcDbLine
 10
131.6289172875344
 20
202.5659385251379
 30
0.0
 11
131.6289172875344
 21
149.8159385251429
 31
0.0
  0
LINE
  5
3D2
330
1D
100
AcDbEntity
  8
_0-1_荳_闊_
  6
繝_繧_繝_繧_繧_繝__24
 62
     7
100
AcDbLine
 10
131.6289172875344
 20
149.8159385251429
 30
0.0
 11
81.69950174788551
 21
149.8159385251429
 31
0.0
  0
LINE
  5
3D3
330
1D
100
AcDbEntity
  8
_0-1_荳_闊_
  6
繝_繧_繝_繧_繧_繝__24
 62
     7
100
AcDbLine
 10
137.6995017478855
 20
149.8159385251429
 30
0.0
 11
137.6995017478855
 21
202.5659385251379
 31
0.0
  0
LINE
  5
3D4
330
1D
100
AcDbEntity
  8
_0-1_荳_闊_
  6
繝_繧_繝_繧_繧_繝__24
 62
     7
100
AcDbLine
 10
137.6995017478855
 20
202.5659385251379
 30
0.0
 11
187.6289172875345
 21
202.5659385251379
 31
0.0
  0
LINE
  5
3D5
330
1D
100
AcDbEntity
  8
_0-1_荳_闊_
  6
繝_繧_繝_繧_繧_繝__24
 62
     7
100
AcDbLine
 10
187.6289172875345
 20
202.5659385251379
 30
0.0
 11
187.6289172875345
 21
149.8159385251429
 31
0.0
  0
LINE
  5
3D6
330
1D
100
AcDbEntity
  8
_0-1_荳_闊_
  6
繝_繧_繝_繧_繧_繝__24
 62
     7
100
AcDbLine
 10
187.6289172875345
 20
149.8159385251429
 30
0.0
 11
137.6995017478855
 21
149.8159385251429
 31
0.0
  0
INSERT
  5
3D7
330
1D
100
AcDbEntity
  8
_0-1_荳_闊_
100
AcDbBlockReference
  2
-031-繧_繝_繝_繝__6-1
 10
1181.555167287535
 20
952.4088051140589
 30
0.0
  0
LINE
  5
3D8
330
1D
100
AcDbEntity
  8
_0-1_荳_闊_
  6
繝_繧_繝_繧_繧_繝__24
 62
     7
100
AcDbLine
 10
1200.631482263216
 20
1657.497919040067
 30
0.0
 11
1253.381482263225
 21
1657.497919040067
 31
0.0
  0
LINE
  5
3D9
330
1D
100
AcDbEntity
  8
_0-1_荳_闊_
  6
繝_繧_繝_繧_繧_繝__24
 62
     7
100
AcDbLine
 10
1253.381482263225
 20
1657.497919040067
 30
0.0
 11
1253.381482263225
 21
1607.568503500402
 31
0.0
  0
LINE
  5
3DA
330
1D
100
AcDbEntity
  8
_0-1_荳_闊_
  6
繝_繧_繝_繧_繧_繝__24
 62
     7
100
AcDbLine
 10
1253.381482263225
 20
1607.568503500402
 30
0.0
 11
1200.631482263216
 21
1607.568503500402
 31
0.0
  0
LINE
  5
3DB
330
1D
100
AcDbEntity
  8
_0-1_荳_闊_
  6
繝_繧_繝_繧_繧_繝__24
 62
     7
100
AcDbLine
 10
1200.631482263216
 20
1607.568503500402
 30
0.0
 11
1200.631482263216
 21
1657.497919040067
 31
0.0
  0
LINE
  5
3DC
330
1D
100
AcDbEntity
  8
_0-1_荳_闊_
  6
繝_繧_繝_繧_繧_繝__24
 62
     7
100
AcDbLine
 10
1200.6314822632
 20
1601.497919040067
 30
0.0
 11
1253.381482263209
 21
1601.497919040067
 31
0.0
  0
LINE
  5
3DD
330
1D
100
AcDbEntity
  8
_0-1_荳_闊_
  6
繝_繧_繝_繧_繧_繝__24
 62
     7
100
AcDbLine
 10
1253.381482263209
 20
1601.497919040067
 30
0.0
 11
1253.381482263209
 21
1551.568503500402
 31
0.0
  0
LINE
  5
3DE
330
1D
100
AcDbEntity
  8
_0-1_荳_闊_
  6
繝_繧_繝_繧_繧_繝__24
 62
     7
100
AcDbLine
 10
1253.381482263209
 20
1551.568503500402
 30
0.0
 11
1200.6314822632
 21
1551.568503500402
 31
0.0
  0
LINE
  5
3DF
330
1D
100
AcDbEntity
  8
_0-1_荳_闊_
  6
繝_繧_繝_繧_繧_繝__24
 62
     7
100
AcDbLine
 10
1200.6314822632
 20
1551.568503500402
 30
0.0
 11
1200.6314822632
 21
1601.497919040067
 31
0.0
  0
LINE
  5
3E0
330
1D
100
AcDbEntity
  8
_0-1_荳_闊_
  6
繝_繧_繝_繧_繧_繝__24
 62
     7
100
AcDbLine
 10
1200.631482263183
 20
1545.497919040067
 30
0.0
 11
1253.381482263193
 21
1545.497919040067
 31
0.0
  0
LINE
  5
3E1
330
1D
100
AcDbEntity
  8
_0-1_荳_闊_
  6
繝_繧_繝_繧_繧_繝__24
 62
     7
100
AcDbLine
 10
1253.381482263193
 20
1545.497919040067
 30
0.0
 11
1253.381482263193
 21
1495.568503500403
 31
0.0
  0
LINE
  5
3E2
330
1D
100
AcDbEntity
  8
_0-1_荳_闊_
  6
繝_繧_繝_繧_繧_繝__24
 62
     7
100
AcDbLine
 10
1253.381482263193
 20
1495.568503500403
 30
0.0
 11
1200.631482263183
 21
1495.568503500403
 31
0.0
  0
LINE
  5
3E3
330
1D
100
AcDbEntity
  8
_0-1_荳_闊_
  6
繝_繧_繝_繧_繧_繝__24
 62
     7
100
AcDbLine
 10
1200.631482263183
 20
1495.568503500403
 30
0.0
 11
1200.631482263183
 21
1545.497919040067
 31
0.0
  0
LINE
  5
3E4
330
1D
100
AcDbEntity
  8
_0-1_荳_闊_
  6
繝_繧_繝_繧_繧_繝__24
 62
     7
100
AcDbLine
 10
1200.631482263168
 20
1489.497919040067
 30
0.0
 11
1253.381482263177
 21
1489.497919040067
 31
0.0
  0
LINE
  5
3E5
330
1D
100
AcDbEntity
  8
_0-1_荳_闊_
  6
繝_繧_繝_繧_繧_繝__24
 62
     7
100
AcDbLine
 10
1253.381482263177
 20
1489.497919040067
 30
0.0
 11
1253.381482263177
 21
1439.568503500403
 31
0.0
  0
LINE
  5
3E6
330
1D
100
AcDbEntity
  8
_0-1_荳_闊_
  6
繝_繧_繝_繧_繧_繝__24
 62
     7
100
AcDbLine
 10
1253.381482263177
 20
1439.568503500403
 30
0.0
 11
1200.631482263168
 21
1439.568503500403
 31
0.0
  0
LINE
  5
3E7
330
1D
100
AcDbEntity
  8
_0-1_荳_闊_
  6
繝_繧_繝_繧_繧_繝__24
 62
     7
100
AcDbLine
 10
1200.631482263168
 20
1439.568503500403
 30
0.0
 11
1200.631482263168
 21
1489.497919040067
 31
0.0
  0
LINE
  5
3E8
330
1D
100
AcDbEntity
  8
_0-1_荳_闊_
  6
繝_繧_繝_繧_繧_繝__24
 62
     7
100
AcDbLine
 10
1200.631482263152
 20
1433.497919040067
 30
0.0
 11
1253.381482263161
 21
1433.497919040067
 31
0.0
  0
LINE
  5
3E9
330
1D
100
AcDbEntity
  8
_0-1_荳_闊_
  6
繝_繧_繝_繧_繧_繝__24
 62
     7
100
AcDbLine
 10
1253.381482263161
 20
1433.497919040067
 30
0.0
 11
1253.381482263161
 21
1383.568503500403
 31
0.0
  0
LINE
  5
3EA
330
1D
100
AcDbEntity
  8
_0-1_荳_闊_
  6
繝_繧_繝_繧_繧_繝__24
 62
     7
100
AcDbLine
 10
1253.381482263161
 20
1383.568503500403
 30
0.0
 11
1200.631482263152
 21
1383.568503500403
 31
0.0
  0
LINE
  5
3EB
330
1D
100
AcDbEntity
  8
_0-1_荳_闊_
  6
繝_繧_繝_繧_繧_繝__24
 62
     7
100
AcDbLine
 10
1200.631482263152
 20
1383.568503500403
 30
0.0
 11
1200.631482263152
 21
1433.497919040067
 31
0.0
  0
LINE
  5
3EC
330
1D
100
AcDbEntity
  8
_0-1_荳_闊_
  6
繝_繧_繝_繧_繧_繝__24
 62
     7
100
AcDbLine
 10
1200.631482263135
 20
1377.497919040067
 30
0.0
 11
1253.381482263145
 21
1377.497919040067
 31
0.0
  0
LINE
  5
3ED
330
1D
100
AcDbEntity
  8
_0-1_荳_闊_
  6
繝_繧_繝_繧_繧_繝__24
 62
     7
100
AcDbLine
 10
1253.381482263145
 20
1377.497919040067
 30
0.0
 11
1253.381482263145
 21
1327.568503500403
 31
0.0
  0
LINE
  5
3EE
330
1D
100
AcDbEntity
  8
_0-1_荳_闊_
  6
繝_繧_繝_繧_繧_繝__24
 62
     7
100
AcDbLine
 10
1253.381482263145
 20
1327.568503500403
 30
0.0
 11
1200.631482263135
 21
1327.568503500403
 31
0.0
  0
LINE
  5
3EF
330
1D
100
AcDbEntity
  8
_0-1_荳_闊_
  6
繝_繧_繝_繧_繧_繝__24
 62
     7
100
AcDbLine
 10
1200.631482263135
 20
1327.568503500403
 30
0.0
 11
1200.631482263135
 21
1377.497919040067
 31
0.0
  0
LINE
  5
3F0
330
1D
100
AcDbEntity
  8
_0-1_荳_闊_
  6
繝_繧_繝_繧_繧_繝__24
 62
     7
100
AcDbLine
 10
1200.63148226312
 20
1321.497919040067
 30
0.0
 11
1253.381482263129
 21
1321.497919040067
 31
0.0
  0
LINE
  5
3F1
330
1D
100
AcDbEntity
  8
_0-1_荳_闊_
  6
繝_繧_繝_繧_繧_繝__24
 62
     7
100
AcDbLine
 10
1253.381482263129
 20
1321.497919040067
 30
0.0
 11
1253.381482263129
 21
1271.568503500403
 31
0.0
  0
LINE
  5
3F2
330
1D
100
AcDbEntity
  8
_0-1_荳_闊_
  6
繝_繧_繝_繧_繧_繝__24
 62
     7
100
AcDbLine
 10
1253.381482263129
 20
1271.568503500403
 30
0.0
 11
1200.63148226312
 21
1271.568503500403
 31
0.0
  0
LINE
  5
3F3
330
1D
100
AcDbEntity
  8
_0-1_荳_闊_
  6
繝_繧_繝_繧_繧_繝__24
 62
     7
100
AcDbLine
 10
1200.63148226312
 20
1271.568503500403
 30
0.0
 11
1200.63148226312
 21
1321.497919040067
 31
0.0
  0
LINE
  5
3F4
330
1D
100
AcDbEntity
  8
_0-1_荳_闊_
  6
繝_繧_繝_繧_繧_繝__24
 62
     7
100
AcDbLine
 10
1200.631482263103
 20
1265.497919040067
 30
0.0
 11
1253.381482263113
 21
1265.497919040067
 31
0.0
  0
LINE
  5
3F5
330
1D
100
AcDbEntity
  8
_0-1_荳_闊_
  6
繝_繧_繝_繧_繧_繝__24
 62
     7
100
AcDbLine
 10
1253.381482263113
 20
1265.497919040067
 30
0.0
 11
1253.381482263113
 21
1215.568503500403
 31
0.0
  0
LINE
  5
3F6
330
1D
100
AcDbEntity
  8
_0-1_荳_闊_
  6
繝_繧_繝_繧_繧_繝__24
 62
     7
100
AcDbLine
 10
1253.381482263113
 20
1215.568503500403
 30
0.0
 11
1200.631482263103
 21
1215.568503500403
 31
0.0
  0
LINE
  5
3F7
330
1D
100
AcDbEntity
  8
_0-1_荳_闊_
  6
繝_繧_繝_繧_繧_繝__24
 62
     7
100
AcDbLine
 10
1200.631482263103
 20
1215.568503500403
 30
0.0
 11
1200.631482263103
 21
1265.497919040067
 31
0.0
  0
INSERT
  5
3F8
330
1D
100
AcDbEntity
  8
_0-1_荳_闊_
100
AcDbBlockReference
  2
-032-繧_繝_繝_繝__7-1
 10
1181.555167287535
 20
952.4088051140589
 30
0.0
  0
LINE
  5
3F9
330
1D
100
AcDbEntity
  8
_0-1_荳_闊_
  6
Continuous
 62
     7
100
AcDbLine
 10
2101.026349936168
 20
1658.497919040528
 30
0.0
 11
2131.026349936168
 21
1658.497919040528
 31
0.0
  0
LINE
  5
3FA
330
1D
100
AcDbEntity
  8
_0-1_荳_闊_
  6
Continuous
 62
     7
100
AcDbLine
 10
2131.026349936168
 20
1658.497919040528
 30
0.0
 11
2131.026349936168
 21
1214.497919040528
 31
0.0
  0
LINE
  5
3FB
330
1D
100
AcDbEntity
  8
_0-1_荳_闊_
  6
Continuous
 62
     7
100
AcDbLine
 10
2131.026349936168
 20
1214.497919040528
 30
0.0
 11
2101.026349936168
 21
1214.497919040528
 31
0.0
  0
LINE
  5
3FC
330
1D
100
AcDbEntity
  8
_0-1_荳_闊_
  6
Continuous
 62
     7
100
AcDbLine
 10
2101.026349936168
 20
1214.497919040528
 30
0.0
 11
2101.026349936168
 21
1658.497919040528
 31
0.0
  0
LINE
  5
3FD
330
1D
100
AcDbEntity
  8
_0-1_荳_闊_
  6
繝_繧_繝_繧_繧_繝__24
 62
     7
100
AcDbLine
 10
2101.026349936168
 20
149.8159385251429
 30
0.0
 11
2101.026349936168
 21
193.5274769866763
 31
0.0
  0
LINE
  5
3FE
330
1D
100
AcDbEntity
  8
_0-1_荳_闊_
  6
繝_繧_繝_繧_繧_繝__24
 62
     7
100
AcDbLine
 10
2101.026349936168
 20
193.5274769866763
 30
0.0
 11
2131.015263461667
 21
192.3740572356956
 31
0.0
  0
LINE
  5
3FF
330
1D
100
AcDbEntity
  8
_0-1_荳_闊_
  6
繝_繧_繝_繧_繧_繝__24
 62
     7
100
AcDbLine
 10
2131.015263461667
 20
192.3740572356956
 30
0.0
 11
2131.026349936168
 21
149.8159385251429
 31
0.0
  0
LINE
  5
400
330
1D
100
AcDbEntity
  8
_0-1_荳_闊_
  6
繝_繧_繝_繧_繧_繝__24
 62
     7
100
AcDbLine
 10
2131.026349936168
 20
149.8159385251429
 30
0.0
 11
2101.026349936168
 21
149.8159385251429
 31
0.0
  0
INSERT
  5
401
330
1D
100
AcDbEntity
  8
_0-b__0-2_蟇_豕___7-1
100
AcDbBlockReference
  2
-033-_D35
 10
1179.7910750807
 20
949.483848826528
 30
0.0
  0
INSERT
  5
402
330
1D
100
AcDbEntity
  8
_0-a__0-2_蟇_豕___6-1
100
AcDbBlockReference
  2
-034-_D36
 10
1179.7910750807
 20
949.483848826528
 30
0.0
  0
INSERT
  5
403
330
1D
100
AcDbEntity
  8
_0-2_蟇_豕__
100
AcDbBlockReference
  2
-035-_D37
 10
1179.7910750807
 20
949.483848826528
 30
0.0
  0
INSERT
  5
404
330
1D
100
AcDbEntity
  8
_0-8__0-2_蟇_豕__ts
100
AcDbBlockReference
  2
-036-_D38
 10
1179.7910750807
 20
949.483848826528
 30
0.0
  0
INSERT
  5
405
330
1D
100
AcDbEntity
  8
_0-8__0-2_蟇_豕__ts
100
AcDbBlockReference
  2
-037-_D39
 10
1179.7910750807
 20
949.483848826528
 30
0.0
  0
INSERT
  5
406
330
1D
100
AcDbEntity
  8
_0-8__0-2_蟇_豕__ts
100
AcDbBlockReference
  2
-038-_D40
 10
1179.7910750807
 20
949.483848826528
 30
0.0
  0
INSERT
  5
407
330
1D
100
AcDbEntity
  8
_0-8__0-2_蟇_豕__ts
100
AcDbBlockReference
  2
-041-_D43
 10
1179.7910750807
 20
949.483848826528
 30
0.0
  0
INSERT
  5
408
330
1D
100
AcDbEntity
  8
_0-8__0-2_蟇_豕__ts
100
AcDbBlockReference
  2
-042-_D44
 10
1179.7910750807
 20
949.483848826528
 30
0.0
  0
INSERT
  5
409
330
1D
100
AcDbEntity
  8
_0-2_蟇_豕__
100
AcDbBlockReference
  2
-043-_D45
 10
1179.7910750807
 20
949.483848826528
 30
0.0
  0
TEXT
  5
40A
330
1D
100
AcDbEntity
  8
_0-1_荳_闊_
 62
     7
100
AcDbText
 10
1351.221862705158
 20
-373.419111552608
 30
0.0
 40
32.494140625
  1
キアルベンチ KIB-06 土新建材
 41
0.9
100
AcDbText
  0
TEXT
  5
40B
330
1D
100
AcDbEntity
  8
_0-1_荳_闊_
 62
     7
100
AcDbText
 10
371.2717372541334
 20
521.5885101545359
 30
0.0
 40
24.37060546875
  1
座面:木粉一体成型アルミ材キアル 50×30
 50
90.0
100
AcDbText
  0
TEXT
  5
40C
330
1D
100
AcDbEntity
  8
_0-1_荳_闊_
 62
     7
100
AcDbText
 10
620.6597222222229
 20
845.5337301587297
 30
0.0
 40
24.37060546875
  1
ステンシェルFT塗装
 50
90.0
100
AcDbText
  0
TEXT
  5
40D
330
1D
100
AcDbEntity
  8
_0-1_荳_闊_
 62
     7
100
AcDbText
 10
587.3263888888896
 20
840.7718253968248
 30
0.0
 40
24.37060546875
  1
補強材:スチールt4.5
 50
90.0
100
AcDbText
  0
TEXT
  5
40E
330
1D
100
AcDbEntity
  8
_0-1_荳_闊_
 62
     7
100
AcDbText
 10
-78.16142491929554
 20
1943.269528219233
 30
0.0
 40
24.37060546875
  1
リブ:スチールt4.5
 50
90.0
100
AcDbText
  0
TEXT
  5
40F
330
1D
100
AcDbEntity
  8
_0-1_荳_闊_
 62
     7
100
AcDbText
 10
-42.67667432970961
 20
1943.692670393802
 30
0.0
 40
24.37060546875
  1
ステンシェルFT塗装
 50
90.0
100
AcDbText
  0
TEXT
  5
410
330
1D
100
AcDbEntity
  8
_0-1_荳_闊_
 62
     7
100
AcDbText
 10
1372.253408328188
 20
1943.269528219274
 30
0.0
 40
24.37060546875
  1
リブ:スチールt4.5
 50
90.0
100
AcDbText
  0
TEXT
  5
411
330
1D
100
AcDbEntity
  8
_0-1_荳_闊_
 62
     7
100
AcDbText
 10
1407.738158917774
 20
1953.239177004335
 30
0.0
 40
24.37060546875
  1
ステンシェルFT塗装
 50
90.0
100
AcDbText
  0
TEXT
  5
412
330
1D
100
AcDbEntity
  8
_0-1_荳_闊_
 62
     7
100
AcDbText
 10
1922.88797377358
 20
301.2099363525027
 30
0.0
 40
24.37060546875
  1
支柱/フレーム:スチールt6
 50
90.0
100
AcDbText
  0
TEXT
  5
413
330
1D
100
AcDbEntity
  8
_0-1_荳_闊_
 62
     7
100
AcDbText
 10
1972.615304839741
 20
309.7300755632416
 30
0.0
 40
24.37060546875
  1
ステンシェルFT塗装
 50
90.0
100
AcDbText
  0
TEXT
  5
414
330
1D
100
AcDbEntity
  8
_0-1_荳_闊_
 62
     7
100
AcDbText
 10
2199.925595238096
 20
304.5615079365071
 30
0.0
 40
24.37060546875
  1
座受け・リブ:スチールt4.5
 50
90.0
100
AcDbText
  0
TEXT
  5
415
330
1D
100
AcDbEntity
  8
_0-1_荳_闊_
 62
     7
100
AcDbText
 10
2242.615304839741
 20
307.3114749021558
 30
0.0
 40
24.37060546875
  1
ステンシェルFT塗装
 50
90.0
100
AcDbText
  0
TEXT
  5
416
330
1D
100
AcDbEntity
  8
_0-0_
 62
     7
100
AcDbText
 10
2509.449404761906
 20
199.7996031746023
 30
0.0
 40
24.37060546875
  1
M8グリップアンカー×4
 50
90.0
100
AcDbText
  0
LINE
  5
417
330
1D
100
AcDbEntity
  8
_0-1_荳_闊_
  6
Continuous
 62
     7
100
AcDbLine
 10
1872.026349936168
 20
1212.497919040528
 30
0.0
 11
1872.026349936168
 21
1492.212384259259
 31
0.0
  0
LINE
  5
418
330
1D
100
AcDbEntity
  8
_0-1_荳_闊_
  6
Continuous
 62
     7
100
AcDbLine
 10
1872.026349936168
 20
1502.926669973544
 30
0.0
 11
1872.026349936168
 21
1602.926669973544
 31
0.0
  0
LINE
  5
419
330
1D
100
AcDbEntity
  8
_0-1_荳_闊_
  6
Continuous
 62
     7
100
AcDbLine
 10
1872.026349936168
 20
1617.410796957672
 30
0.0
 11
1872.026349936168
 21
1660.497919040528
 31
0.0
  0
LINE
  5
41A
330
1D
100
AcDbEntity
  8
_0-8__0-2_蟇_豕__ts
  6
Continuous
 62
     7
100
AcDbLine
 10
1262.881482263219
 20
1696.497919040529
 30
0.0
 11
1262.881482263219
 21
1805.597528397604
 31
0.0
  0
LINE
  5
41B
330
1D
100
AcDbEntity
  8
_0-8__0-2_蟇_豕__ts
  6
Continuous
 62
     7
100
AcDbLine
 10
1262.881482263219
 20
1795.597528397604
 30
0.0
 11
1258.381482263224
 21
1795.597528397604
 31
0.0
  0
LINE
  5
41C
330
1D
100
AcDbEntity
  8
_0-8__0-2_蟇_豕__ts
  6
Continuous
 62
     7
100
AcDbLine
 10
1268.881116052282
 20
1795.597528397604
 30
0.0
 11
1274.880749841345
 21
1795.597528397604
 31
0.0
  0
LINE
  5
41D
330
1D
100
AcDbEntity
  8
_0-8__0-2_蟇_豕__ts
  6
Continuous
 62
     7
100
AcDbLine
 10
1252.381848474162
 20
1795.597528397604
 30
0.0
 11
1246.382214685099
 21
1795.597528397604
 31
0.0
  0
INSERT
  5
41E
330
1D
100
AcDbEntity
  8
_0-8__0-2_蟇_豕__ts
100
AcDbBlockReference
  2
-000-VW_EMPTYBALL
 10
1262.881482263219
 20
1795.597528397604
 30
0.0
 41
5.9996337890625
 42
5.9996337890625
 50
180.0
  0
INSERT
  5
41F
330
1D
100
AcDbEntity
  8
_0-8__0-2_蟇_豕__ts
100
AcDbBlockReference
  2
-000-VW_EMPTYBALL
 10
1258.381482263224
 20
1795.597528397604
 30
0.0
 41
5.9996337890625
 42
5.9996337890625
  0
POINT
  5
420
330
1D
100
AcDbEntity
  8
_0-8__0-2_蟇_豕__ts
 62
     7
100
AcDbPoint
 10
1262.881482263219
 20
1686.497919040528
 30
0.0
  0
POINT
  5
421
330
1D
100
AcDbEntity
  8
_0-8__0-2_蟇_豕__ts
 62
     7
100
AcDbPoint
 10
1258.381482263224
 20
1686.497919040528
 30
0.0
  0
POINT
  5
422
330
1D
100
AcDbEntity
  8
_0-8__0-2_蟇_豕__ts
 62
     7
100
AcDbPoint
 10
1258.381482263224
 20
1795.597528397604
 30
0.0
  0
LINE
  5
423
330
1D
100
AcDbEntity
  8
_0-8__0-2_蟇_豕__ts
  6
Continuous
 62
     7
100
AcDbLine
 10
1258.381482263224
 20
1696.497919040529
 30
0.0
 11
1258.381482263224
 21
1771.64564247338
 31
0.0
  0
LINE
  5
424
330
1D
100
AcDbEntity
  8
_0-8__0-2_蟇_豕__ts
  6
Continuous
 62
     7
100
AcDbLine
 10
1258.381482263224
 20
1789.999952459052
 30
0.0
 11
1258.381482263224
 21
1805.597528397604
 31
0.0
  0
LINE
  5
425
330
1D
100
AcDbEntity
  8
_0-b__0-2_蟇_豕___7-1
  6
Continuous
 62
     7
100
AcDbLine
 10
1258.381482263224
 20
1696.497919040529
 30
0.0
 11
1258.381482263224
 21
1805.597528397604
 31
0.0
  0
LINE
  5
426
330
1D
100
AcDbEntity
  8
_0-b__0-2_蟇_豕___7-1
  6
Continuous
 62
     7
100
AcDbLine
 10
1253.381482263225
 20
1696.497919040529
 30
0.0
 11
1253.381482263225
 21
1805.597528397604
 31
0.0
  0
LINE
  5
427
330
1D
100
AcDbEntity
  8
_0-b__0-2_蟇_豕___7-1
  6
Continuous
 62
     7
100
AcDbLine
 10
1264.381116052287
 20
1795.597528397604
 30
0.0
 11
1270.380749841349
 21
1795.597528397604
 31
0.0
  0
LINE
  5
428
330
1D
100
AcDbEntity
  8
_0-b__0-2_蟇_豕___7-1
  6
Continuous
 62
     7
100
AcDbLine
 10
1247.381848474163
 20
1795.597528397604
 30
0.0
 11
1241.3822146851
 21
1795.597528397604
 31
0.0
  0
INSERT
  5
429
330
1D
100
AcDbEntity
  8
_0-b__0-2_蟇_豕___7-1
100
AcDbBlockReference
  2
-000-VW_EMPTYBALL
 10
1258.381482263224
 20
1795.597528397604
 30
0.0
 41
5.9996337890625
 42
5.9996337890625
 50
180.0
  0
INSERT
  5
42A
330
1D
100
AcDbEntity
  8
_0-b__0-2_蟇_豕___7-1
100
AcDbBlockReference
  2
-000-VW_EMPTYBALL
 10
1253.381482263225
 20
1795.597528397604
 30
0.0
 41
5.9996337890625
 42
5.9996337890625
  0
POINT
  5
42B
330
1D
100
AcDbEntity
  8
_0-b__0-2_蟇_豕___7-1
 62
     7
100
AcDbPoint
 10
1258.381482263224
 20
1686.497919040528
 30
0.0
  0
POINT
  5
42C
330
1D
100
AcDbEntity
  8
_0-b__0-2_蟇_豕___7-1
 62
     7
100
AcDbPoint
 10
1253.381482263225
 20
1686.497919040528
 30
0.0
  0
POINT
  5
42D
330
1D
100
AcDbEntity
  8
_0-b__0-2_蟇_豕___7-1
 62
     7
100
AcDbPoint
 10
1253.381482263225
 20
1795.597528397604
 30
0.0
  0
ENDSEC
  0
SECTION
  2
OBJECTS
  0
DICTIONARY
  5
C
330
0
100
AcDbDictionary
281
     1
  3
ACAD_2007HEADERVARS_RT
350
4E4
  3
ACAD_CIP_PREVIOUS_PRODUCT_INFO
350
4D4
  3
ACAD_COLOR
350
4CD
  3
ACAD_DETAILVIEWSTYLE
350
471
  3
ACAD_GROUP
350
D
  3
ACAD_LAYOUT
350
1A
  3
ACAD_MATERIAL
350
462
  3
ACAD_MLEADERSTYLE
350
468
  3
ACAD_MLINESTYLE
350
17
  3
ACAD_PLOTSETTINGS
350
19
  3
ACAD_PLOTSTYLENAME
350
E
  3
ACAD_SCALELIST
350
433
  3
ACAD_SECTIONVIEWSTYLE
350
472
  3
ACAD_TABLESTYLE
350
466
  3
ACAD_VISUALSTYLE
350
449
  3
ACDB_RECOMPOSE_DATA
350
4E2
  3
AcDbVariableDictionary
350
46C
  3
DWGPROPS
350
4E3
  0
DICTIONARY
  5
4E4
102
{ACAD_REACTORS
330
C
102
}
330
C
100
AcDbDictionary
281
     1
  3
INTERFERECOLOR
350
4E5
  0
XRECORD
  5
4D4
102
{ACAD_REACTORS
330
C
102
}
330
C
100
AcDbXrecord
280
     1
300
ACD
300
2022
300

  0
DICTIONARY
  5
4CD
102
{ACAD_REACTORS
330
C
102
}
330
C
100
AcDbDictionary
281
     1
  0
DICTIONARY
  5
471
102
{ACAD_REACTORS
330
C
102
}
330
C
100
AcDbDictionary
281
     1
  3
Imperial24
350
4CF
  0
DICTIONARY
  5
D
102
{ACAD_REACTORS
330
C
102
}
330
C
100
AcDbDictionary
281
     1
  0
DICTIONARY
  5
1A
102
{ACAD_REACTORS
330
C
102
}
330
C
100
AcDbDictionary
281
     1
  3
Model
350
1E
  3
レイアウト 1
350
1C
  0
DICTIONARY
  5
462
102
{ACAD_REACTORS
330
C
102
}
330
C
100
AcDbDictionary
281
     1
  3
ByBlock
350
464
  3
ByLayer
350
463
  3
Global
350
465
  0
DICTIONARY
  5
468
102
{ACAD_REACTORS
330
C
102
}
330
C
100
AcDbDictionary
281
     1
  3
Standard
350
469
  0
DICTIONARY
  5
17
102
{ACAD_REACTORS
330
C
102
}
330
C
100
AcDbDictionary
281
     1
  3
Standard
350
18
  0
DICTIONARY
  5
19
102
{ACAD_REACTORS
330
C
102
}
330
C
100
AcDbDictionary
281
     1
  0
ACDBDICTIONARYWDFLT
  5
E
102
{ACAD_REACTORS
330
C
102
}
330
C
100
AcDbDictionary
281
     1
  3
ByColor
350
11
  3
Normal
350
F
100
AcDbDictionaryWithDefault
340
F
  0
DICTIONARY
  5
433
102
{ACAD_REACTORS
330
C
102
}
330
C
100
AcDbDictionary
281
     1
  3
A0
350
434
  3
B7
350
435
  3
B8
350
436
  3
B9
350
437
  3
C0
350
438
  3
C1
350
439
  3
C2
350
43A
  3
C3
350
43B
  3
C4
350
43C
  3
C5
350
43D
  3
C6
350
43E
  3
C7
350
43F
  3
C8
350
440
  3
C9
350
441
  3
D0
350
442
  3
D1
350
443
  3
D2
350
444
  0
DICTIONARY
  5
472
102
{ACAD_REACTORS
330
C
102
}
330
C
100
AcDbDictionary
281
     1
  3
Imperial24
350
4CE
  0
DICTIONARY
  5
466
102
{ACAD_REACTORS
330
C
102
}
330
C
100
AcDbDictionary
281
     1
  3
Standard
350
467
  0
DICTIONARY
  5
449
102
{ACAD_REACTORS
330
C
102
}
330
C
100
AcDbDictionary
281
     1
  3
2dWireframe
350
44E
  3
Basic
350
451
  3
Brighten
350
455
  3
ColorChange
350
459
  3
Conceptual
350
453
  3
Dim
350
454
  3
EdgeColorOff
350
45C
  3
Facepattern
350
458
  3
Flat
350
44A
  3
FlatWithEdges
350
44B
  3
Gouraud
350
44C
  3
GouraudWithEdges
350
44D
  3
Hidden
350
450
  3
JitterOff
350
45A
  3
Linepattern
350
457
  3
OverhangOff
350
45B
  3
Realistic
350
452
  3
Shaded
350
461
  3
Shaded with edges
350
460
  3
Shades of Gray
350
45D
  3
Sketchy
350
45E
  3
Thicken
350
456
  3
Wireframe
350
44F
  3
X-Ray
350
45F
  0
XRECORD
  5
4E2
102
{ACAD_REACTORS
330
C
102
}
330
C
100
AcDbXrecord
280
     1
 90
        1
330
467
  0
DICTIONARY
  5
46C
102
{ACAD_REACTORS
330
C
102
}
330
C
100
AcDbDictionary
281
     1
  3
CANNOSCALE
350
46D
  3
CMLEADERSTYLE
350
46F
  3
CTABLESTYLE
350
46E
  3
CVIEWDETAILSTYLE
350
4D5
  3
CVIEWSECTIONSTYLE
350
4D6
  3
DIMASSOC
350
4DD
  3
HIDETEXT
350
4DC
  3
INDEXCTL
350
4DB
  3
LAYEREVAL
350
4D8
  3
LAYERNOTIFY
350
4D9
  3
LIGHTINGUNITS
350
4D7
  3
MSLTSCALE
350
470
  3
SOLIDHIST
350
4DE
  3
SORTENTS
350
4DA
  3
XCLIPFRAME
350
48F
  0
XRECORD
  5
4E3
102
{ACAD_REACTORS
330
C
102
}
330
C
100
AcDbXrecord
280
     1
  1
DWGPROPS COOKIE
  2

  3

  4

  6

  7

  8
81901
  9

300
=
301
=
302
=
303
=
304
=
305
=
306
=
307
=
308
=
309
=
 40
0.0005308680555556
 41
2459888.844930556
 42
2460176.463252315
  1

 90
        0
  0
XRECORD
  5
4E5
102
{ACAD_REACTORS
330
4E4
102
}
330
4E4
100
AcDbXrecord
280
     1
1004
1800000001000000000000C0000000000000000000000000
  0
ACDBDETAILVIEWSTYLE
  5
4CF
102
{ACAD_XDICTIONARY
360
523
102
}
102
{ACAD_REACTORS
330
471
102
}
330
471
100
AcDbModelDocViewStyle
 70
     0
  3
Imperial24
290
     0
100
AcDbDetailViewStyle
 70
     0
 71
     0
 90
        3
 71
     1
340
12
 40
0.24
340
0
 40
0.24
300

 40
0.36
280
     3
 71
     2
340
16
 90
       25
 71
     3
340
12
 40
0.24
 90
        1
 40
0.75
 90
        1
300
%<\AcVar ViewType \f "%tc1">% %<\AcVar ViewDetailId>%\PSCALE %<\AcVar ViewScale \f "%sn">%
 71
     4
340
16
 90
       25
340
16
 90
       25
280
     0
  0
LAYOUT
  5
1E
102
{ACAD_XDICTIONARY
360
4E8
102
}
102
{ACAD_REACTORS
330
1A
102
}
330
1A
100
AcDbPlotSettings
  1

  2
none_device
  4
ISO_A4_(210.00_x_297.00_MM)
  6

 40
7.5
 41
20.0
 42
7.5
 43
20.0
 44
210.0
 45
297.0
 46
0.0
 47
0.0
 48
0.0
 49
0.0
140
0.0
141
0.0
142
1.0
143
1.0
 70
  1712
 72
     0
 73
     1
 74
     0
  7

 75
     0
147
1.0
148
0.0
149
0.0
100
AcDbLayout
  1
Model
 70
     1
 71
     0
 10
0.0
 20
0.0
 11
12.0
 21
9.0
 12
0.0
 22
0.0
 32
0.0
 14
-715.2089172875335
 24
-416.6445282192739
 34
0.0
 15
3142.026982873865
 25
2229.439372316836
 35
0.0
146
0.0
 13
0.0
 23
0.0
 33
0.0
 16
1.0
 26
0.0
 36
0.0
 17
0.0
 27
1.0
 37
0.0
 76
     0
330
1D
331
42E
  0
LAYOUT
  5
1C
102
{ACAD_XDICTIONARY
360
4E6
102
}
102
{ACAD_REACTORS
330
1A
102
}
330
1A
100
AcDbPlotSettings
  1

  2
none_device
  4
ISO_A4_(210.00_x_297.00_MM)
  6

 40
7.5
 41
20.0
 42
7.5
 43
20.0
 44
210.0
 45
297.0
 46
0.0
 47
0.0
 48
0.0
 49
0.0
140
0.0
141
0.0
142
1.0
143
1.0
 70
   688
 72
     0
 73
     1
 74
     5
  7

 75
    16
147
1.0
148
0.0
149
0.0
100
AcDbLayout
  1
レイアウト 1
 70
     1
 71
     1
 10
0.0
 20
0.0
 11
12.0
 21
9.0
 12
0.0
 22
0.0
 32
0.0
 14
1.000000000000000E+20
 24
1.000000000000000E+20
 34
1.000000000000000E+20
 15
-1.000000000000000E+20
 25
-1.000000000000000E+20
 35
-1.000000000000000E+20
146
0.0
 13
0.0
 23
0.0
 33
0.0
 16
1.0
 26
0.0
 36
0.0
 17
0.0
 27
1.0
 37
0.0
 76
     0
330
1B
  0
MATERIAL
  5
464
102
{ACAD_XDICTIONARY
360
51C
102
}
102
{ACAD_REACTORS
330
462
102
}
330
462
100
AcDbMaterial
  1
ByBlock
 73
     1
 78
     1
172
     1
176
     1
270
     1
274
     1
  0
MATERIAL
  5
463
102
{ACAD_XDICTIONARY
360
51A
102
}
102
{ACAD_REACTORS
330
462
102
}
330
462
100
AcDbMaterial
  1
ByLayer
 73
     1
 78
     1
172
     1
176
     1
270
     1
274
     1
  0
MATERIAL
  5
465
102
{ACAD_XDICTIONARY
360
51E
102
}
102
{ACAD_REACTORS
330
462
102
}
330
462
100
AcDbMaterial
  1
Global
 73
     1
 78
     1
172
     1
176
     1
270
     1
274
     1
  0
MLEADERSTYLE
  5
469
102
{ACAD_REACTORS
330
468
102
}
330
468
100
AcDbMLeaderStyle
170
     2
171
     1
172
     0
 90
        2
 40
0.0
 41
0.0
173
     1
 91
-1056964608
340
16
 92
       -2
290
     1
 42
0.09
291
     1
 43
0.36
  3
Standard
 44
0.18
300

342
12
174
     1
178
     6
175
     1
176
     0
 93
-1056964608
 45
0.18
292
     0
297
     0
 46
0.18
 94
-1056964608
 47
1.0
 49
1.0
140
1.0
293
     1
141
0.0
294
     1
177
     0
142
1.0
295
     0
296
     0
143
0.125
1001
ACAD_MLEADERVER
1070
     2
  0
MLINESTYLE
  5
18
102
{ACAD_REACTORS
330
17
102
}
330
17
100
AcDbMlineStyle
  2
STANDARD
 70
     0
  3

 62
   256
 51
90.0
 52
90.0
 71
     2
 49
0.5
 62
   256
  6
BYLAYER
 49
-0.5
 62
   256
  6
BYLAYER
  0
ACDBPLACEHOLDER
  5
11
102
{ACAD_REACTORS
330
E
102
}
330
E
  0
ACDBPLACEHOLDER
  5
F
102
{ACAD_REACTORS
330
E
102
}
330
E
  0
SCALE
  5
434
102
{ACAD_REACTORS
330
433
102
}
330
433
100
AcDbScale
 70
     0
300
1:1
140
1.0
141
1.0
290
     1
  0
SCALE
  5
435
102
{ACAD_REACTORS
330
433
102
}
330
433
100
AcDbScale
 70
     0
300
1/128" = 1'-0"
140
0.0078125
141
12.0
290
     0
  0
SCALE
  5
436
102
{ACAD_REACTORS
330
433
102
}
330
433
100
AcDbScale
 70
     0
300
1/64" = 1'-0"
140
0.015625
141
12.0
290
     0
  0
SCALE
  5
437
102
{ACAD_REACTORS
330
433
102
}
330
433
100
AcDbScale
 70
     0
300
1/32" = 1'-0"
140
0.03125
141
12.0
290
     0
  0
SCALE
  5
438
102
{ACAD_REACTORS
330
433
102
}
330
433
100
AcDbScale
 70
     0
300
1/16" = 1'-0"
140
0.0625
141
12.0
290
     0
  0
SCALE
  5
439
102
{ACAD_REACTORS
330
433
102
}
330
433
100
AcDbScale
 70
     0
300
3/32" = 1'-0"
140
0.09375
141
12.0
290
     0
  0
SCALE
  5
43A
102
{ACAD_REACTORS
330
433
102
}
330
433
100
AcDbScale
 70
     0
300
1/8" = 1'-0"
140
0.125
141
12.0
290
     0
  0
SCALE
  5
43B
102
{ACAD_REACTORS
330
433
102
}
330
433
100
AcDbScale
 70
     0
300
3/16" = 1'-0"
140
0.1875
141
12.0
290
     0
  0
SCALE
  5
43C
102
{ACAD_REACTORS
330
433
102
}
330
433
100
AcDbScale
 70
     0
300
1/4" = 1'-0"
140
0.25
141
12.0
290
     0
  0
SCALE
  5
43D
102
{ACAD_REACTORS
330
433
102
}
330
433
100
AcDbScale
 70
     0
300
3/8" = 1'-0"
140
0.375
141
12.0
290
     0
  0
SCALE
  5
43E
102
{ACAD_REACTORS
330
433
102
}
330
433
100
AcDbScale
 70
     0
300
1/2" = 1'-0"
140
0.5
141
12.0
290
     0
  0
SCALE
  5
43F
102
{ACAD_REACTORS
330
433
102
}
330
433
100
AcDbScale
 70
     0
300
3/4" = 1'-0"
140
0.75
141
12.0
290
     0
  0
SCALE
  5
440
102
{ACAD_REACTORS
330
433
102
}
330
433
100
AcDbScale
 70
     0
300
1" = 1'-0"
140
1.0
141
12.0
290
     0
  0
SCALE
  5
441
102
{ACAD_REACTORS
330
433
102
}
330
433
100
AcDbScale
 70
     0
300
1-1/2" = 1'-0"
140
1.5
141
12.0
290
     0
  0
SCALE
  5
442
102
{ACAD_REACTORS
330
433
102
}
330
433
100
AcDbScale
 70
     0
300
3" = 1'-0"
140
3.0
141
12.0
290
     0
  0
SCALE
  5
443
102
{ACAD_REACTORS
330
433
102
}
330
433
100
AcDbScale
 70
     0
300
6" = 1'-0"
140
6.0
141
12.0
290
     0
  0
SCALE
  5
444
102
{ACAD_REACTORS
330
433
102
}
330
433
100
AcDbScale
 70
     0
300
1'-0" = 1'-0"
140
12.0
141
12.0
290
     0
  0
ACDBSECTIONVIEWSTYLE
  5
4CE
102
{ACAD_XDICTIONARY
360
521
102
}
102
{ACAD_REACTORS
330
472
102
}
330
472
100
AcDbModelDocViewStyle
 70
     0
  3
Imperial24
290
     0
100
AcDbSectionViewStyle
 70
     0
 71
     0
 90
       78
 71
     1
340
12
 40
0.24
340
0
340
0
 40
0.24
300
I, O, Q, S, X, Z
 40
0.48
 90
        3
 40
0.18
 90
        1
 71
     2
340
16
 90
       25
340
16
 90
       50
 40
0.24
 40
0.0
 40
0.24
 71
     3
340
12
 40
0.24
 90
        1
 40
0.75
 90
        1
300
%<\AcVar ViewType \f "%tc1">% %<\AcVar ViewSectionStartId>%-%<\AcVar ViewSectionEndId>%\PSCALE %<\AcVar ViewScale \f "%sn">%
 71
     4
300
ANSI31
 40
1.0
 90
        0
290
     0
290
     0
 90
        6
 40
0.0
 40
1.570796326794896
 40
0.2617993877991494
 40
1.308996938995747
 40
-0.2617993877991494
 40
1.832595714594046
  0
TABLESTYLE
  5
467
102
{ACAD_XDICTIONARY
360
4E0
102
}
102
{ACAD_REACTORS
330
466
102
}
330
466
100
AcDbTableStyle
  3
Standard
 70
     0
 71
     0
 40
0.06
 41
0.06
280
     0
281
     0
  7
STANDARD
140
0.18
170
     2
 62
     0
 63
     7
283
     0
274
    -2
284
     1
 64
     0
275
    -2
285
     1
 65
     0
276
    -2
286
     1
 66
     0
277
    -2
287
     1
 67
     0
278
    -2
288
     1
 68
     0
279
    -2
289
     1
 69
     0
  7
STANDARD
140
0.25
170
     5
 62
     0
 63
     7
283
     0
274
    -2
284
     1
 64
     0
275
    -2
285
     1
 65
     0
276
    -2
286
     1
 66
     0
277
    -2
287
     1
 67
     0
278
    -2
288
     1
 68
     0
279
    -2
289
     1
 69
     0
  7
STANDARD
140
0.18
170
     5
 62
     0
 63
     7
283
     0
274
    -2
284
     1
 64
     0
275
    -2
285
     1
 65
     0
276
    -2
286
     1
 66
     0
277
    -2
287
     1
 67
     0
278
    -2
288
     1
 68
     0
279
    -2
289
     1
 69
     0
  0
VISUALSTYLE
  5
44E
102
{ACAD_XDICTIONARY
360
4F2
102
}
102
{ACAD_REACTORS
330
449
102
}
330
449
100
AcDbVisualStyle
  2
2dWireframe
 70
     4
 71
     0
 72
     2
 73
     0
 90
        0
 40
-0.6
 41
-30.0
 62
     5
 63
     7
 74
     1
 91
        4
 64
     7
 65
   257
 75
     1
175
     1
 42
1.0
 92
        0
 66
   257
 43
1.0
 76
     1
 77
     6
 78
     2
 67
     7
 79
     5
170
     0
171
     0
290
     0
174
     0
 93
        1
 44
0.0
173
     0
291
     0
 45
0.0
1001
ACAD
1000
AcDbSavedByObjectVersion
1070
     0
  0
VISUALSTYLE
  5
451
102
{ACAD_XDICTIONARY
360
4F8
102
}
102
{ACAD_REACTORS
330
449
102
}
330
449
100
AcDbVisualStyle
  2
Basic
 70
     7
 71
     1
 72
     0
 73
     1
 90
        0
 40
-0.6
 41
-30.0
 62
     5
 63
     7
 74
     0
 91
        4
 64
     7
 65
   257
 75
     1
175
     1
 42
1.0
 92
        8
 66
     7
 43
1.0
 76
     1
 77
     6
 78
     2
 67
     7
 79
     5
170
     0
171
     0
290
     0
174
     0
 93
        1
 44
0.0
173
     0
291
     1
 45
0.0
1001
ACAD
1000
AcDbSavedByObjectVersion
1070
     0
  0
VISUALSTYLE
  5
455
102
{ACAD_XDICTIONARY
360
500
102
}
102
{ACAD_REACTORS
330
449
102
}
330
449
100
AcDbVisualStyle
  2
Brighten
 70
    12
 71
     2
 72
     2
 73
     0
 90
        0
 40
-0.6
 41
-30.0
 62
     5
 63
     7
 74
     1
 91
        4
 64
     7
 65
   257
 75
     1
175
     1
 42
1.0
 92
        8
 66
     7
 43
1.0
 76
     1
 77
     6
 78
     2
 67
     7
 79
     5
170
     0
171
     0
290
     0
174
     0
 93
        1
 44
50.0
173
     0
291
     1
 45
0.0
1001
ACAD
1000
AcDbSavedByObjectVersion
1070
     0
  0
VISUALSTYLE
  5
459
102
{ACAD_XDICTIONARY
360
508
102
}
102
{ACAD_REACTORS
330
449
102
}
330
449
100
AcDbVisualStyle
  2
ColorChange
 70
    16
 71
     2
 72
     2
 73
     3
 90
        0
 40
-0.6
 41
-30.0
 62
     5
 63
     8
 74
     1
 91
        4
 64
     7
 65
   257
 75
     1
175
     1
 42
1.0
 92
        8
 66
     8
 43
1.0
 76
     1
 77
     6
 78
     2
 67
     7
 79
     5
170
     0
171
     0
290
     0
174
     0
 93
        1
 44
0.0
173
     0
291
     1
 45
0.0
1001
ACAD
1000
AcDbSavedByObjectVersion
1070
     0
  0
VISUALSTYLE
  5
453
102
{ACAD_XDICTIONARY
360
4FC
102
}
102
{ACAD_REACTORS
330
449
102
}
330
449
100
AcDbVisualStyle
  2
Conceptual
 70
     9
 71
     3
 72
     2
 73
     0
 90
        0
 40
-0.6
 41
-30.0
 62
     5
 63
     7
 74
     2
 91
        2
 64
     7
 65
   257
 75
     1
175
     1
 42
40.0
 92
        8
 66
     7
 43
1.0
 76
     1
 77
     6
 78
     2
 67
     7
 79
     3
170
     0
171
     0
290
     0
174
     0
 93
        1
 44
0.0
173
     0
291
     0
 45
0.0
1001
ACAD
1000
AcDbSavedByObjectVersion
1070
     0
  0
VISUALSTYLE
  5
454
102
{ACAD_XDICTIONARY
360
4FE
102
}
102
{ACAD_REACTORS
330
449
102
}
330
449
100
AcDbVisualStyle
  2
Dim
 70
    11
 71
     2
 72
     2
 73
     0
 90
        0
 40
-0.6
 41
-30.0
 62
     5
 63
     7
 74
     1
 91
        4
 64
     7
 65
   257
 75
     1
175
     1
 42
1.0
 92
        8
 66
     7
 43
1.0
 76
     1
 77
     6
 78
     2
 67
     7
 79
     5
170
     0
171
     0
290
     0
174
     0
 93
        1
 44
-50.0
173
     0
291
     1
 45
0.0
1001
ACAD
1000
AcDbSavedByObjectVersion
1070
     0
  0
VISUALSTYLE
  5
45C
102
{ACAD_XDICTIONARY
360
50E
102
}
102
{ACAD_REACTORS
330
449
102
}
330
449
100
AcDbVisualStyle
  2
EdgeColorOff
 70
    22
 71
     2
 72
     2
 73
     0
 90
        0
 40
-0.6
 41
-30.0
 62
     5
 63
     7
 74
     1
 91
        4
 64
     7
 65
   257
 75
     1
175
     1
 42
1.0
 92
        8
 66
     7
 43
1.0
 76
     1
 77
     6
 78
     2
 67
     7
 79
     5
170
     0
171
     0
290
     0
174
     0
 93
        1
 44
0.0
173
     0
291
     1
 45
0.0
1001
ACAD
1000
AcDbSavedByObjectVersion
1070
     0
  0
VISUALSTYLE
  5
458
102
{ACAD_XDICTIONARY
360
506
102
}
102
{ACAD_REACTORS
330
449
102
}
330
449
100
AcDbVisualStyle
  2
Facepattern
 70
    15
 71
     2
 72
     2
 73
     0
 90
        0
 40
-0.6
 41
-30.0
 62
     5
 63
     7
 74
     1
 91
        4
 64
     7
 65
   257
 75
     1
175
     1
 42
1.0
 92
        8
 66
     7
 43
1.0
 76
     1
 77
     6
 78
     2
 67
     7
 79
     5
170
     0
171
     0
290
     0
174
     0
 93
        1
 44
0.0
173
     0
291
     1
 45
0.0
1001
ACAD
1000
AcDbSavedByObjectVersion
1070
     0
  0
VISUALSTYLE
  5
44A
102
{ACAD_XDICTIONARY
360
4EA
102
}
102
{ACAD_REACTORS
330
449
102
}
330
449
100
AcDbVisualStyle
  2
Flat
 70
     0
 71
     2
 72
     1
 73
     1
 90
        2
 40
-0.6
 41
30.0
 62
     5
 63
     7
 74
     0
 91
        4
 64
     7
 65
   257
 75
     1
175
     1
 42
1.0
 92
        8
 66
     7
 43
1.0
 76
     1
 77
     6
 78
     2
 67
     7
 79
     5
170
     0
171
     0
290
     0
174
     0
 93
       13
 44
0.0
173
     0
291
     1
 45
0.0
1001
ACAD
1000
AcDbSavedByObjectVersion
1070
     0
  0
VISUALSTYLE
  5
44B
102
{ACAD_XDICTIONARY
360
4EC
102
}
102
{ACAD_REACTORS
330
449
102
}
330
449
100
AcDbVisualStyle
  2
FlatWithEdges
 70
     1
 71
     2
 72
     1
 73
     1
 90
        2
 40
-0.6
 41
30.0
 62
     5
 63
     7
 74
     1
 91
        4
 64
     7
 65
   257
 75
     1
175
     1
 42
1.0
 92
        0
 66
   257
 43
1.0
 76
     1
 77
     6
 78
     2
 67
     7
 79
     5
170
     0
171
     0
290
     0
174
     0
 93
       13
 44
0.0
173
     0
291
     1
 45
0.0
1001
ACAD
1000
AcDbSavedByObjectVersion
1070
     0
  0
VISUALSTYLE
  5
44C
102
{ACAD_XDICTIONARY
360
4EE
102
}
102
{ACAD_REACTORS
330
449
102
}
330
449
100
AcDbVisualStyle
  2
Gouraud
 70
     2
 71
     2
 72
     2
 73
     1
 90
        2
 40
-0.6
 41
30.0
 62
     5
 63
     7
 74
     0
 91
        4
 64
     7
 65
   257
 75
     1
175
     1
 42
1.0
 92
        0
 66
     7
 43
1.0
 76
     1
 77
     6
 78
     2
 67
     7
 79
     5
170
     0
171
     0
290
     0
174
     0
 93
       13
 44
0.0
173
     0
291
     1
 45
0.0
1001
ACAD
1000
AcDbSavedByObjectVersion
1070
     0
  0
VISUALSTYLE
  5
44D
102
{ACAD_XDICTIONARY
360
4F0
102
}
102
{ACAD_REACTORS
330
449
102
}
330
449
100
AcDbVisualStyle
  2
GouraudWithEdges
 70
     3
 71
     2
 72
     2
 73
     1
 90
        2
 40
-0.6
 41
30.0
 62
     5
 63
     7
 74
     1
 91
        4
 64
     7
 65
   257
 75
     1
175
     1
 42
1.0
 92
        0
 66
   257
 43
1.0
 76
     1
 77
     6
 78
     2
 67
     7
 79
     5
170
     0
171
     0
290
     0
174
     0
 93
       13
 44
0.0
173
     0
291
     1
 45
0.0
1001
ACAD
1000
AcDbSavedByObjectVersion
1070
     0
  0
VISUALSTYLE
  5
450
102
{ACAD_XDICTIONARY
360
4F6
102
}
102
{ACAD_REACTORS
330
449
102
}
330
449
100
AcDbVisualStyle
  2
Hidden
 70
     6
 71
     1
 72
     2
 73
     2
 90
        0
 40
-0.6
 41
-30.0
 62
     5
 63
     7
 74
     2
 91
        2
 64
     7
 65
   257
 75
     2
175
     1
 42
40.0
 92
        0
 66
   257
 43
1.0
 76
     1
 77
     6
 78
     2
 67
     7
 79
     3
170
     0
171
     0
290
     0
174
     0
 93
        1
 44
0.0
173
     0
291
     0
 45
0.0
1001
ACAD
1000
AcDbSavedByObjectVersion
1070
     0
  0
VISUALSTYLE
  5
45A
102
{ACAD_XDICTIONARY
360
50A
102
}
102
{ACAD_REACTORS
330
449
102
}
330
449
100
AcDbVisualStyle
  2
JitterOff
 70
    20
 71
     2
 72
     2
 73
     0
 90
        0
 40
-0.6
 41
-30.0
 62
     5
 63
     7
 74
     1
 91
        4
 64
     7
 65
   257
 75
     1
175
     1
 42
1.0
 92
       10
 66
     7
 43
1.0
 76
     1
 77
     6
 78
     2
 67
     7
 79
     5
170
     0
171
     0
290
     0
174
     0
 93
        1
 44
0.0
173
     0
291
     1
 45
0.0
1001
ACAD
1000
AcDbSavedByObjectVersion
1070
     0
  0
VISUALSTYLE
  5
457
102
{ACAD_XDICTIONARY
360
504
102
}
102
{ACAD_REACTORS
330
449
102
}
330
449
100
AcDbVisualStyle
  2
Linepattern
 70
    14
 71
     2
 72
     2
 73
     0
 90
        0
 40
-0.6
 41
-30.0
 62
     5
 63
     7
 74
     1
 91
        4
 64
     7
 65
   257
 75
     7
175
     7
 42
1.0
 92
        8
 66
     7
 43
1.0
 76
     1
 77
     6
 78
     2
 67
     7
 79
     5
170
     0
171
     0
290
     0
174
     0
 93
        1
 44
0.0
173
     0
291
     1
 45
0.0
1001
ACAD
1000
AcDbSavedByObjectVersion
1070
     0
  0
VISUALSTYLE
  5
45B
102
{ACAD_XDICTIONARY
360
50C
102
}
102
{ACAD_REACTORS
330
449
102
}
330
449
100
AcDbVisualStyle
  2
OverhangOff
 70
    21
 71
     2
 72
     2
 73
     0
 90
        0
 40
-0.6
 41
-30.0
 62
     5
 63
     7
 74
     1
 91
        4
 64
     7
 65
   257
 75
     1
175
     1
 42
1.0
 92
        9
 66
     7
 43
1.0
 76
     1
 77
     6
 78
     2
 67
     7
 79
     5
170
     0
171
     0
290
     0
174
     0
 93
        1
 44
0.0
173
     0
291
     1
 45
0.0
1001
ACAD
1000
AcDbSavedByObjectVersion
1070
     0
  0
VISUALSTYLE
  5
452
102
{ACAD_XDICTIONARY
360
4FA
102
}
102
{ACAD_REACTORS
330
449
102
}
330
449
100
AcDbVisualStyle
  2
Realistic
 70
     8
 71
     2
 72
     3
 73
     0
 90
        2
 40
-0.6
 41
30.0
 62
     5
 63
     7
 74
     0
 91
        0
 64
     7
 65
   257
 75
     1
175
     1
 42
1.0
 92
        8
 66
   257
 43
1.0
 76
     1
 77
     6
 78
     2
 67
     7
 79
     3
170
     0
171
     0
290
     0
174
     0
 93
       13
 44
0.0
173
     0
291
     0
 45
0.0
1001
ACAD
1000
AcDbSavedByObjectVersion
1070
     0
  0
VISUALSTYLE
  5
461
102
{ACAD_XDICTIONARY
360
518
102
}
102
{ACAD_REACTORS
330
449
102
}
330
449
100
AcDbVisualStyle
  2
Shaded
 70
    27
 71
     2
 72
     2
 73
     1
 90
        2
 40
-0.6
 41
30.0
 62
     5
 63
     7
 74
     0
 91
        4
 64
     7
 65
   257
 75
     1
175
     1
 42
1.0
 92
        8
 66
   257
 43
1.0
 76
     1
 77
     6
 78
     2
 67
   251
 79
     3
170
     0
171
     0
290
     0
174
     0
 93
        5
 44
0.0
173
     0
291
     0
 45
0.0
1001
ACAD
1000
AcDbSavedByObjectVersion
1070
     0
  0
VISUALSTYLE
  5
460
102
{ACAD_XDICTIONARY
360
516
102
}
102
{ACAD_REACTORS
330
449
102
}
330
449
100
AcDbVisualStyle
  2
Shaded with edges
 70
    26
 71
     2
 72
     2
 73
     1
 90
        2
 40
-0.6
 41
30.0
 62
     5
 63
     7
 74
     1
 91
        2
 64
     7
 65
   257
 75
     2
175
     1
 42
1.0
 92
        8
 66
   257
 43
1.0
 76
     1
 77
     6
 78
     2
 67
     7
 79
     3
170
     0
171
     0
290
     0
174
     0
 93
        5
 44
0.0
173
     0
291
     0
 45
0.0
1001
ACAD
1000
AcDbSavedByObjectVersion
1070
     0
  0
VISUALSTYLE
  5
45D
102
{ACAD_XDICTIONARY
360
510
102
}
102
{ACAD_REACTORS
330
449
102
}
330
449
100
AcDbVisualStyle
  2
Shades of Gray
 70
    23
 71
     2
 72
     2
 73
     3
 90
        0
 40
-0.6
 41
-30.0
 62
     5
 63
     7
 74
     2
 91
        2
 64
     7
 65
     7
 75
     1
175
     1
 42
40.0
 92
        8
 66
     7
 43
1.0
 76
     1
 77
     6
 78
     2
 67
     7
 79
     3
170
     0
171
     0
290
     0
174
     0
 93
        1
 44
0.0
173
     0
291
     0
 45
0.0
1001
ACAD
1000
AcDbSavedByObjectVersion
1070
     0
  0
VISUALSTYLE
  5
45E
102
{ACAD_XDICTIONARY
360
512
102
}
102
{ACAD_REACTORS
330
449
102
}
330
449
100
AcDbVisualStyle
  2
Sketchy
 70
    24
 71
     1
 72
     2
 73
     2
 90
        0
 40
-0.6
 41
-30.0
 62
     5
 63
     7
 74
     2
 91
        2
 64
     7
 65
     7
 75
     1
175
     1
 42
40.0
 92
       11
 66
     7
 43
1.0
 76
     1
 77
     6
 78
     2
 67
     7
 79
     6
170
     0
171
     0
290
     0
174
     0
 93
        1
 44
0.0
173
     0
291
     0
 45
0.0
1001
ACAD
1000
AcDbSavedByObjectVersion
1070
     0
  0
VISUALSTYLE
  5
456
102
{ACAD_XDICTIONARY
360
502
102
}
102
{ACAD_REACTORS
330
449
102
}
330
449
100
AcDbVisualStyle
  2
Thicken
 70
    13
 71
     2
 72
     2
 73
     0
 90
        0
 40
-0.6
 41
-30.0
 62
     5
 63
     7
 74
     1
 91
        4
 64
     7
 65
   257
 75
     1
175
     1
 42
1.0
 92
       12
 66
     7
 43
1.0
 76
     1
 77
     6
 78
     2
 67
     7
 79
     5
170
     0
171
     0
290
     0
174
     0
 93
        1
 44
0.0
173
     0
291
     1
 45
0.0
1001
ACAD
1000
AcDbSavedByObjectVersion
1070
     0
  0
VISUALSTYLE
  5
44F
102
{ACAD_XDICTIONARY
360
4F4
102
}
102
{ACAD_REACTORS
330
449
102
}
330
449
100
AcDbVisualStyle
  2
Wireframe
 70
     5
 71
     0
 72
     2
 73
     0
 90
        0
 40
-0.6
 41
-30.0
 62
     5
 63
     7
 74
     1
 91
        4
 64
     7
 65
   257
 75
     1
175
     1
 42
1.0
 92
        0
 66
   257
 43
1.0
 76
     1
 77
     6
 78
     2
 67
     7
 79
     5
170
     0
171
     0
290
     0
174
     0
 93
        1
 44
0.0
173
     0
291
     0
 45
0.0
1001
ACAD
1000
AcDbSavedByObjectVersion
1070
     0
  0
VISUALSTYLE
  5
45F
102
{ACAD_XDICTIONARY
360
514
102
}
102
{ACAD_REACTORS
330
449
102
}
330
449
100
AcDbVisualStyle
  2
X-Ray
 70
    25
 71
     2
 72
     2
 73
     1
 90
        1
 40
0.5
 41
-30.0
 62
     5
 63
     7
 74
     1
 91
        0
 64
     7
 65
   257
 75
     1
175
     1
 42
1.0
 92
        8
 66
     7
 43
1.0
 76
     1
 77
     6
 78
     2
 67
     7
 79
     3
170
     0
171
     0
290
     0
174
     0
 93
       13
 44
0.0
173
     0
291
     0
 45
0.0
1001
ACAD
1000
AcDbSavedByObjectVersion
1070
     0
  0
DICTIONARYVAR
  5
46D
102
{ACAD_REACTORS
330
46C
102
}
330
46C
100
DictionaryVariables
280
     0
  1
1:1
  0
DICTIONARYVAR
  5
46F
102
{ACAD_REACTORS
330
46C
102
}
330
46C
100
DictionaryVariables
280
     0
  1
STANDARD
  0
DICTIONARYVAR
  5
46E
102
{ACAD_REACTORS
330
46C
102
}
330
46C
100
DictionaryVariables
280
     0
  1
STANDARD
  0
DICTIONARYVAR
  5
4D5
102
{ACAD_REACTORS
330
46C
102
}
330
46C
100
DictionaryVariables
280
     0
  1
Imperial24
  0
DICTIONARYVAR
  5
4D6
102
{ACAD_REACTORS
330
46C
102
}
330
46C
100
DictionaryVariables
280
     0
  1
Imperial24
  0
DICTIONARYVAR
  5
4DD
102
{ACAD_REACTORS
330
46C
102
}
330
46C
100
DictionaryVariables
280
     0
  1
1
  0
DICTIONARYVAR
  5
4DC
102
{ACAD_REACTORS
330
46C
102
}
330
46C
100
DictionaryVariables
280
     0
  1
1
  0
DICTIONARYVAR
  5
4DB
102
{ACAD_REACTORS
330
46C
102
}
330
46C
100
DictionaryVariables
280
     0
  1
0
  0
DICTIONARYVAR
  5
4D8
102
{ACAD_REACTORS
330
46C
102
}
330
46C
100
DictionaryVariables
280
     0
  1
0
  0
DICTIONARYVAR
  5
4D9
102
{ACAD_REACTORS
330
46C
102
}
330
46C
100
DictionaryVariables
280
     0
  1
0
  0
DICTIONARYVAR
  5
4D7
102
{ACAD_REACTORS
330
46C
102
}
330
46C
100
DictionaryVariables
280
     0
  1
2
  0
DICTIONARYVAR
  5
470
102
{ACAD_REACTORS
330
46C
102
}
330
46C
100
DictionaryVariables
280
     0
  1
0
  0
DICTIONARYVAR
  5
4DE
102
{ACAD_REACTORS
330
46C
102
}
330
46C
100
DictionaryVariables
280
     0
  1
1
  0
DICTIONARYVAR
  5
4DA
102
{ACAD_REACTORS
330
46C
102
}
330
46C
100
DictionaryVariables
280
     0
  1
127
  0
DICTIONARYVAR
  5
48F
102
{ACAD_REACTORS
330
46C
102
}
330
46C
100
DictionaryVariables
280
     0
  1
0
  0
DICTIONARY
  5
523
330
4CF
100
AcDbDictionary
280
     1
281
     1
  3
ACAD_XREC_ROUNDTRIP
360
524
  0
DICTIONARY
  5
4E8
330
1E
100
AcDbDictionary
280
     1
281
     1
  3
ACAD_XREC_ROUNDTRIP
360
4E9
  0
DICTIONARY
  5
4E6
330
1C
100
AcDbDictionary
280
     1
281
     1
  3
ACAD_XREC_ROUNDTRIP
360
4E7
  0
DICTIONARY
  5
51C
330
464
100
AcDbDictionary
280
     1
281
     1
  3
ACAD_XREC_ROUNDTRIP
360
51D
  0
DICTIONARY
  5
51A
330
463
100
AcDbDictionary
280
     1
281
     1
  3
ACAD_XREC_ROUNDTRIP
360
51B
  0
DICTIONARY
  5
51E
330
465
100
AcDbDictionary
280
     1
281
     1
  3
ACAD_XREC_ROUNDTRIP
360
51F
  0
DICTIONARY
  5
521
330
4CE
100
AcDbDictionary
280
     1
281
     1
  3
ACAD_XREC_ROUNDTRIP
360
522
  0
DICTIONARY
  5
4E0
330
467
100
AcDbDictionary
280
     1
281
     1
  3
ACAD_ROUNDTRIP_2008_TABLESTYLE_CELLSTYLEMAP
360
4E1
  3
ACAD_XREC_ROUNDTRIP
360
520
  0
DICTIONARY
  5
4F2
330
44E
100
AcDbDictionary
280
     1
281
     1
  3
ACAD_XREC_ROUNDTRIP
360
4F3
  0
DICTIONARY
  5
4F8
330
451
100
AcDbDictionary
280
     1
281
     1
  3
ACAD_XREC_ROUNDTRIP
360
4F9
  0
DICTIONARY
  5
500
330
455
100
AcDbDictionary
280
     1
281
     1
  3
ACAD_XREC_ROUNDTRIP
360
501
  0
DICTIONARY
  5
508
330
459
100
AcDbDictionary
280
     1
281
     1
  3
ACAD_XREC_ROUNDTRIP
360
509
  0
DICTIONARY
  5
4FC
330
453
100
AcDbDictionary
280
     1
281
     1
  3
ACAD_XREC_ROUNDTRIP
360
4FD
  0
DICTIONARY
  5
4FE
330
454
100
AcDbDictionary
280
     1
281
     1
  3
ACAD_XREC_ROUNDTRIP
360
4FF
  0
DICTIONARY
  5
50E
330
45C
100
AcDbDictionary
280
     1
281
     1
  3
ACAD_XREC_ROUNDTRIP
360
50F
  0
DICTIONARY
  5
506
330
458
100
AcDbDictionary
280
     1
281
     1
  3
ACAD_XREC_ROUNDTRIP
360
507
  0
DICTIONARY
  5
4EA
330
44A
100
AcDbDictionary
280
     1
281
     1
  3
ACAD_XREC_ROUNDTRIP
360
4EB
  0
DICTIONARY
  5
4EC
330
44B
100
AcDbDictionary
280
     1
281
     1
  3
ACAD_XREC_ROUNDTRIP
360
4ED
  0
DICTIONARY
  5
4EE
330
44C
100
AcDbDictionary
280
     1
281
     1
  3
ACAD_XREC_ROUNDTRIP
360
4EF
  0
DICTIONARY
  5
4F0
330
44D
100
AcDbDictionary
280
     1
281
     1
  3
ACAD_XREC_ROUNDTRIP
360
4F1
  0
DICTIONARY
  5
4F6
330
450
100
AcDbDictionary
280
     1
281
     1
  3
ACAD_XREC_ROUNDTRIP
360
4F7
  0
DICTIONARY
  5
50A
330
45A
100
AcDbDictionary
280
     1
281
     1
  3
ACAD_XREC_ROUNDTRIP
360
50B
  0
DICTIONARY
  5
504
330
457
100
AcDbDictionary
280
     1
281
     1
  3
ACAD_XREC_ROUNDTRIP
360
505
  0
DICTIONARY
  5
50C
330
45B
100
AcDbDictionary
280
     1
281
     1
  3
ACAD_XREC_ROUNDTRIP
360
50D
  0
DICTIONARY
  5
4FA
330
452
100
AcDbDictionary
280
     1
281
     1
  3
ACAD_XREC_ROUNDTRIP
360
4FB
  0
DICTIONARY
  5
518
330
461
100
AcDbDictionary
280
     1
281
     1
  3
ACAD_XREC_ROUNDTRIP
360
519
  0
DICTIONARY
  5
516
330
460
100
AcDbDictionary
280
     1
281
     1
  3
ACAD_XREC_ROUNDTRIP
360
517
  0
DICTIONARY
  5
510
330
45D
100
AcDbDictionary
280
     1
281
     1
  3
ACAD_XREC_ROUNDTRIP
360
511
  0
DICTIONARY
  5
512
330
45E
100
AcDbDictionary
280
     1
281
     1
  3
ACAD_XREC_ROUNDTRIP
360
513
  0
DICTIONARY
  5
502
330
456
100
AcDbDictionary
280
     1
281
     1
  3
ACAD_XREC_ROUNDTRIP
360
503
  0
DICTIONARY
  5
4F4
330
44F
100
AcDbDictionary
280
     1
281
     1
  3
ACAD_XREC_ROUNDTRIP
360
4F5
  0
DICTIONARY
  5
514
330
45F
100
AcDbDictionary
280
     1
281
     1
  3
ACAD_XREC_ROUNDTRIP
360
515
  0
XRECORD
  5
524
102
{ACAD_REACTORS
330
523
102
}
330
523
100
AcDbXrecord
280
     1
102
DISPLAYNAME
  1
Imperial24
102
FLAGS
 90
        0
  0
XRECORD
  5
4E9
102
{ACAD_REACTORS
330
4E8
102
}
330
4E8
100
AcDbXrecord
280
     1
102
SHADEPLOT
 70
     0
102
SHADEPLOTRESLEVEL
 70
     2
102
SHADEPLOTCUSTOMDPI
 70
   300
  0
XRECORD
  5
4E7
102
{ACAD_REACTORS
330
4E6
102
}
330
4E6
100
AcDbXrecord
280
     1
102
SHADEPLOT
 70
     0
102
SHADEPLOTRESLEVEL
 70
     2
102
SHADEPLOTCUSTOMDPI
 70
   300
  0
XRECORD
  5
51D
102
{ACAD_REACTORS
330
51C
102
}
330
51C
100
AcDbXrecord
280
     1
102
MATERIAL
148
0.0
149
0.0
149
0.0
 93
        0
 94
      127
282
     0
 72
     1
 77
     1
171
     1
175
     1
179
     1
273
     0
  0
XRECORD
  5
51B
102
{ACAD_REACTORS
330
51A
102
}
330
51A
100
AcDbXrecord
280
     1
102
MATERIAL
148
0.0
149
0.0
149
0.0
 93
        0
 94
      127
282
     0
 72
     1
 77
     1
171
     1
175
     1
179
     1
273
     0
  0
XRECORD
  5
51F
102
{ACAD_REACTORS
330
51E
102
}
330
51E
100
AcDbXrecord
280
     1
102
MATERIAL
148
0.0
149
0.0
149
0.0
 93
        0
 94
      127
282
     0
 72
     1
 77
     1
171
     1
175
     1
179
     1
273
     0
  0
XRECORD
  5
522
102
{ACAD_REACTORS
330
521
102
}
330
521
100
AcDbXrecord
280
     1
102
DISPLAYNAME
  1
Imperial24
102
FLAGS
 90
        0
  0
CELLSTYLEMAP
  5
4E1
102
{ACAD_REACTORS
330
4E0
102
}
330
4E0
100
AcDbCellStyleMap
 90
        3
300
CELLSTYLE
  1
TABLEFORMAT_BEGIN
 90
        5
170
     1
 91
        0
 92
    32768
 62
   257
 93
        1
300
CONTENTFORMAT
  1
CONTENTFORMAT_BEGIN
 90
        0
 91
        0
 92
      512
 93
        0
300

 40
0.0
140
1.0
 94
        5
 62
     0
340
12
144
0.25
309
CONTENTFORMAT_END
171
     1
301
MARGIN
  1
CELLMARGIN_BEGIN
 40
0.06
 40
0.06
 40
0.06
 40
0.06
 40
0.06
 40
0.06
309
CELLMARGIN_END
 94
        6
 95
        1
302
GRIDFORMAT
  1
GRIDFORMAT_BEGIN
 90
        0
 91
        1
 62
     0
 92
       -2
340
14
 93
        0
 40
0.045
309
GRIDFORMAT_END
 95
        2
302
GRIDFORMAT
  1
GRIDFORMAT_BEGIN
 90
        0
 91
        1
 62
     0
 92
       -2
340
14
 93
        0
 40
0.045
309
GRIDFORMAT_END
 95
        4
302
GRIDFORMAT
  1
GRIDFORMAT_BEGIN
 90
        0
 91
        1
 62
     0
 92
       -2
340
14
 93
        0
 40
0.045
309
GRIDFORMAT_END
 95
        8
302
GRIDFORMAT
  1
GRIDFORMAT_BEGIN
 90
        0
 91
        1
 62
     0
 92
       -2
340
14
 93
        0
 40
0.045
309
GRIDFORMAT_END
 95
       16
302
GRIDFORMAT
  1
GRIDFORMAT_BEGIN
 90
        0
 91
        1
 62
     0
 92
       -2
340
14
 93
        0
 40
0.045
309
GRIDFORMAT_END
 95
       32
302
GRIDFORMAT
  1
GRIDFORMAT_BEGIN
 90
        0
 91
        1
 62
     0
 92
       -2
340
14
 93
        0
 40
0.045
309
GRIDFORMAT_END
309
TABLEFORMAT_END
  1
CELLSTYLE_BEGIN
 90
        1
 91
        1
300
_TITLE
309
CELLSTYLE_END
300
CELLSTYLE
  1
TABLEFORMAT_BEGIN
 90
        5
170
     1
 91
        0
 92
        0
 62
   257
 93
        1
300
CONTENTFORMAT
  1
CONTENTFORMAT_BEGIN
 90
        0
 91
        0
 92
      512
 93
        0
300

 40
0.0
140
1.0
 94
        5
 62
     0
340
12
144
0.18
309
CONTENTFORMAT_END
171
     1
301
MARGIN
  1
CELLMARGIN_BEGIN
 40
0.06
 40
0.06
 40
0.06
 40
0.06
 40
0.06
 40
0.06
309
CELLMARGIN_END
 94
        6
 95
        1
302
GRIDFORMAT
  1
GRIDFORMAT_BEGIN
 90
        0
 91
        1
 62
     0
 92
       -2
340
14
 93
        0
 40
0.045
309
GRIDFORMAT_END
 95
        2
302
GRIDFORMAT
  1
GRIDFORMAT_BEGIN
 90
        0
 91
        1
 62
     0
 92
       -2
340
14
 93
        0
 40
0.045
309
GRIDFORMAT_END
 95
        4
302
GRIDFORMAT
  1
GRIDFORMAT_BEGIN
 90
        0
 91
        1
 62
     0
 92
       -2
340
14
 93
        0
 40
0.045
309
GRIDFORMAT_END
 95
        8
302
GRIDFORMAT
  1
GRIDFORMAT_BEGIN
 90
        0
 91
        1
 62
     0
 92
       -2
340
14
 93
        0
 40
0.045
309
GRIDFORMAT_END
 95
       16
302
GRIDFORMAT
  1
GRIDFORMAT_BEGIN
 90
        0
 91
        1
 62
     0
 92
       -2
340
14
 93
        0
 40
0.045
309
GRIDFORMAT_END
 95
       32
302
GRIDFORMAT
  1
GRIDFORMAT_BEGIN
 90
        0
 91
        1
 62
     0
 92
       -2
340
14
 93
        0
 40
0.045
309
GRIDFORMAT_END
309
TABLEFORMAT_END
  1
CELLSTYLE_BEGIN
 90
        2
 91
        1
300
_HEADER
309
CELLSTYLE_END
300
CELLSTYLE
  1
TABLEFORMAT_BEGIN
 90
        5
170
     1
 91
        0
 92
        0
 62
   257
 93
        1
300
CONTENTFORMAT
  1
CONTENTFORMAT_BEGIN
 90
        0
 91
        0
 92
      512
 93
        0
300

 40
0.0
140
1.0
 94
        2
 62
     0
340
12
144
0.18
309
CONTENTFORMAT_END
171
     1
301
MARGIN
  1
CELLMARGIN_BEGIN
 40
0.06
 40
0.06
 40
0.06
 40
0.06
 40
0.06
 40
0.06
309
CELLMARGIN_END
 94
        6
 95
        1
302
GRIDFORMAT
  1
GRIDFORMAT_BEGIN
 90
        0
 91
        1
 62
     0
 92
       -2
340
14
 93
        0
 40
0.045
309
GRIDFORMAT_END
 95
        2
302
GRIDFORMAT
  1
GRIDFORMAT_BEGIN
 90
        0
 91
        1
 62
     0
 92
       -2
340
14
 93
        0
 40
0.045
309
GRIDFORMAT_END
 95
        4
302
GRIDFORMAT
  1
GRIDFORMAT_BEGIN
 90
        0
 91
        1
 62
     0
 92
       -2
340
14
 93
        0
 40
0.045
309
GRIDFORMAT_END
 95
        8
302
GRIDFORMAT
  1
GRIDFORMAT_BEGIN
 90
        0
 91
        1
 62
     0
 92
       -2
340
14
 93
        0
 40
0.045
309
GRIDFORMAT_END
 95
       16
302
GRIDFORMAT
  1
GRIDFORMAT_BEGIN
 90
        0
 91
        1
 62
     0
 92
       -2
340
14
 93
        0
 40
0.045
309
GRIDFORMAT_END
 95
       32
302
GRIDFORMAT
  1
GRIDFORMAT_BEGIN
 90
        0
 91
        1
 62
     0
 92
       -2
340
14
 93
        0
 40
0.045
309
GRIDFORMAT_END
309
TABLEFORMAT_END
  1
CELLSTYLE_BEGIN
 90
        3
 91
        2
300
_DATA
309
CELLSTYLE_END
  0
XRECORD
  5
520
102
{ACAD_REACTORS
330
4E0
102
}
330
4E0
100
AcDbXrecord
280
     1
102
ACAD_ROUNDTRIP_PRE2007_TABLESTYLE
 90
      512
 91
        0
  1

 92
      512
 93
        0
  2

 94
      512
 95
        0
  3

  0
XRECORD
  5
4F3
102
{ACAD_REACTORS
330
4F2
102
}
330
4F2
100
AcDbXrecord
280
     1
102
RTVSPost2010Prop28
280
     1
102
RTVSPost2010PropOp28
 70
     1
102
RTVSPost2010Prop29
280
     1
102
RTVSPost2010PropOp29
 70
     1
102
RTVSPost2010Prop30
280
     0
102
RTVSPost2010PropOp30
 70
     1
102
RTVSPost2010Prop31
280
     0
102
RTVSPost2010PropOp31
 70
     1
102
RTVSPost2010Prop32
280
     0
102
RTVSPost2010PropOp32
 70
     1
102
RTVSPost2010Prop33
280
     0
102
RTVSPost2010PropOp33
 70
     1
102
RTVSPost2010Prop34
280
     0
102
RTVSPost2010PropOp34
 70
     1
102
RTVSPost2010Prop35
280
     0
102
RTVSPost2010PropOp35
 70
     1
102
RTVSPost2010Prop36
280
     0
102
RTVSPost2010PropOp36
 70
     1
102
RTVSPost2010Prop37
 90
       50
102
RTVSPost2010PropOp37
 70
     1
102
RTVSPost2010Prop38
140
0.0
102
RTVSPost2010PropOp38
 70
     1
102
RTVSPost2010Prop39
140
1.0
102
RTVSPost2010PropOp39
 70
     1
102
RTVSPost2010Prop40
 90
        0
102
RTVSPost2010PropOp40
 70
     1
102
RTVSPost2010Prop41ColorIndex
 90
       18
102
RTVSPost2010Prop41ColorRGB
 90
        0
102
RTVSPost2010PropOp41
 70
     1
102
RTVSPost2010Prop42
 90
       50
102
RTVSPost2010PropOp42
 70
     1
102
RTVSPost2010Prop43
 90
        3
102
RTVSPost2010PropOp43
 70
     1
102
RTVSPost2010Prop44ColorIndex
 90
        5
102
RTVSPost2010Prop44ColorRGB
 90
      255
102
RTVSPost2010PropOp44
 70
     1
102
RTVSPost2010Prop45
280
     0
102
RTVSPost2010PropOp45
 70
     1
102
RTVSPost2010Prop46
 90
       50
102
RTVSPost2010PropOp46
 70
     1
102
RTVSPost2010Prop47
 90
       50
102
RTVSPost2010PropOp47
 70
     1
102
RTVSPost2010Prop48
 90
       50
102
RTVSPost2010PropOp48
 70
     1
102
RTVSPost2010Prop49
280
     0
102
RTVSPost2010PropOp49
 70
     1
102
RTVSPost2010Prop50
 90
       50
102
RTVSPost2010PropOp50
 70
     1
102
RTVSPost2010Prop51ColorIndex
 90
      256
102
RTVSPost2010Prop51ColorRGB
 90
-16777216
102
RTVSPost2010PropOp51
 70
     0
102
RTVSPost2010Prop52
140
1.0
102
RTVSPost2010PropOp52
 70
     0
102
RTVSPost2010Prop53
 90
        2
102
RTVSPost2010PropOp53
 70
     1
102
RTVSPost2010Prop54
  1
strokes_ogs.tif
102
RTVSPost2010PropOp54
 70
     1
102
RTVSPost2010Prop55
280
     0
102
RTVSPost2010PropOp55
 70
     1
102
RTVSPost2010Prop56
140
1.0
102
RTVSPost2010PropOp56
 70
     1
102
RTVSPost2010Prop57
140
1.0
102
RTVSPost2010PropOp57
 70
     1
102
RTVSPropertyOp0
 70
     1
102
RTVSPropertyOp1
 70
     1
102
RTVSPropertyOp2
 70
     1
102
RTVSPropertyOp3
 70
     1
102
RTVSPropertyOp4
 70
     1
102
RTVSPropertyOp5
 70
     1
102
RTVSPropertyOp6
 70
     1
102
RTVSPropertyOp7
 70
     1
102
RTVSPropertyOp8
 70
     1
102
RTVSPropertyOp9
 70
     1
102
RTVSPropertyOp10
 70
     1
102
RTVSPropertyOp11
 70
     1
102
RTVSPropertyOp12
 70
     1
102
RTVSPropertyOp13
 70
     1
102
RTVSPropertyOp14
 70
     1
102
RTVSPropertyOp15
 70
     1
102
RTVSPropertyOp16
 70
     1
102
RTVSPropertyOp17
 70
     1
102
RTVSPropertyOp18
 70
     1
102
RTVSPropertyOp19
 70
     1
102
RTVSPropertyOp20
 70
     1
102
RTVSPropertyOp21
 70
     1
102
RTVSPropertyOp22
 70
     1
102
RTVSPropertyOp23
 70
     1
102
RTVSPropertyOp24
 70
     1
102
RTVSPropertyOp25
 70
     1
102
RTVSPropertyOp26
 70
     1
102
RTVSPropertyOp27
 70
     1
102
RTVSPropertyOp28
 70
     1
102
RTVSPropertyOp29
 70
     1
102
RTVSPropertyOp30
 70
     1
102
RTVSPropertyOp31
 70
     1
102
RTVSPropertyOp32
 70
     1
102
RTVSPropertyOp33
 70
     1
102
RTVSPropertyOp34
 70
     1
102
RTVSPropertyOp35
 70
     1
102
RTVSPropertyOp36
 70
     1
102
RTVSPropertyOp37
 70
     1
102
RTVSPropertyOp38
 70
     1
102
RTVSPropertyOp39
 70
     1
102
RTVSPropertyOp40
 70
     1
102
RTVSPropertyOp41
 70
     1
102
RTVSPropertyOp42
 70
     1
102
RTVSPropertyOp43
 70
     1
102
RTVSPropertyOp44
 70
     1
102
RTVSPropertyOp45
 70
     1
102
RTVSPropertyOp46
 70
     1
102
RTVSPropertyOp47
 70
     1
102
RTVSPropertyOp48
 70
     1
102
RTVSPropertyOp49
 70
     1
102
RTVSPropertyOp50
 70
     1
102
RTVSPropertyOp51
 70
     0
102
RTVSPropertyOp52
 70
     0
102
RTVSPropertyOp53
 70
     1
102
RTVSPropertyOp54
 70
     1
102
RTVSPropertyOp55
 70
     1
102
RTVSPropertyOp56
 70
     1
102
RTVSPropertyOp57
 70
     1
102
RTVSPropertyOp58
 70
     1
102
RTVSPropertyOp59
 70
     1
102
RTVSPropertyOp60
 70
     1
102
RTVSPropertyOp61
 70
     1
102
RTVSPropertyOp62
 70
     1
  0
XRECORD
  5
4F9
102
{ACAD_REACTORS
330
4F8
102
}
330
4F8
100
AcDbXrecord
280
     1
102
RTVSPost2010Prop28
280
     0
102
RTVSPost2010PropOp28
 70
     1
102
RTVSPost2010Prop29
280
     1
102
RTVSPost2010PropOp29
 70
     1
102
RTVSPost2010Prop30
280
     1
102
RTVSPost2010PropOp30
 70
     1
102
RTVSPost2010Prop31
280
     0
102
RTVSPost2010PropOp31
 70
     1
102
RTVSPost2010Prop32
280
     0
102
RTVSPost2010PropOp32
 70
     1
102
RTVSPost2010Prop33
280
     0
102
RTVSPost2010PropOp33
 70
     1
102
RTVSPost2010Prop34
280
     0
102
RTVSPost2010PropOp34
 70
     1
102
RTVSPost2010Prop35
280
     0
102
RTVSPost2010PropOp35
 70
     1
102
RTVSPost2010Prop36
280
     0
102
RTVSPost2010PropOp36
 70
     1
102
RTVSPost2010Prop37
 90
       50
102
RTVSPost2010PropOp37
 70
     1
102
RTVSPost2010Prop38
140
0.0
102
RTVSPost2010PropOp38
 70
     1
102
RTVSPost2010Prop39
140
1.0
102
RTVSPost2010PropOp39
 70
     1
102
RTVSPost2010Prop40
 90
        0
102
RTVSPost2010PropOp40
 70
     1
102
RTVSPost2010Prop41ColorIndex
 90
       18
102
RTVSPost2010Prop41ColorRGB
 90
        0
102
RTVSPost2010PropOp41
 70
     1
102
RTVSPost2010Prop42
 90
       50
102
RTVSPost2010PropOp42
 70
     1
102
RTVSPost2010Prop43
 90
        3
102
RTVSPost2010PropOp43
 70
     1
102
RTVSPost2010Prop44ColorIndex
 90
        5
102
RTVSPost2010Prop44ColorRGB
 90
      255
102
RTVSPost2010PropOp44
 70
     1
102
RTVSPost2010Prop45
280
     0
102
RTVSPost2010PropOp45
 70
     1
102
RTVSPost2010Prop46
 90
       50
102
RTVSPost2010PropOp46
 70
     1
102
RTVSPost2010Prop47
 90
       50
102
RTVSPost2010PropOp47
 70
     1
102
RTVSPost2010Prop48
 90
       50
102
RTVSPost2010PropOp48
 70
     1
102
RTVSPost2010Prop49
280
     0
102
RTVSPost2010PropOp49
 70
     1
102
RTVSPost2010Prop50
 90
       50
102
RTVSPost2010PropOp50
 70
     1
102
RTVSPost2010Prop51ColorIndex
 90
      256
102
RTVSPost2010Prop51ColorRGB
 90
-16777216
102
RTVSPost2010PropOp51
 70
     0
102
RTVSPost2010Prop52
140
1.0
102
RTVSPost2010PropOp52
 70
     0
102
RTVSPost2010Prop53
 90
        2
102
RTVSPost2010PropOp53
 70
     1
102
RTVSPost2010Prop54
  1
strokes_ogs.tif
102
RTVSPost2010PropOp54
 70
     1
102
RTVSPost2010Prop55
280
     0
102
RTVSPost2010PropOp55
 70
     1
102
RTVSPost2010Prop56
140
1.0
102
RTVSPost2010PropOp56
 70
     1
102
RTVSPost2010Prop57
140
1.0
102
RTVSPost2010PropOp57
 70
     1
102
RTVSPropertyOp0
 70
     1
102
RTVSPropertyOp1
 70
     1
102
RTVSPropertyOp2
 70
     1
102
RTVSPropertyOp3
 70
     1
102
RTVSPropertyOp4
 70
     1
102
RTVSPropertyOp5
 70
     1
102
RTVSPropertyOp6
 70
     1
102
RTVSPropertyOp7
 70
     1
102
RTVSPropertyOp8
 70
     1
102
RTVSPropertyOp9
 70
     1
102
RTVSPropertyOp10
 70
     1
102
RTVSPropertyOp11
 70
     1
102
RTVSPropertyOp12
 70
     1
102
RTVSPropertyOp13
 70
     1
102
RTVSPropertyOp14
 70
     1
102
RTVSPropertyOp15
 70
     1
102
RTVSPropertyOp16
 70
     1
102
RTVSPropertyOp17
 70
     1
102
RTVSPropertyOp18
 70
     1
102
RTVSPropertyOp19
 70
     1
102
RTVSPropertyOp20
 70
     1
102
RTVSPropertyOp21
 70
     1
102
RTVSPropertyOp22
 70
     1
102
RTVSPropertyOp23
 70
     1
102
RTVSPropertyOp24
 70
     1
102
RTVSPropertyOp25
 70
     1
102
RTVSPropertyOp26
 70
     1
102
RTVSPropertyOp27
 70
     1
102
RTVSPropertyOp28
 70
     1
102
RTVSPropertyOp29
 70
     1
102
RTVSPropertyOp30
 70
     1
102
RTVSPropertyOp31
 70
     1
102
RTVSPropertyOp32
 70
     1
102
RTVSPropertyOp33
 70
     1
102
RTVSPropertyOp34
 70
     1
102
RTVSPropertyOp35
 70
     1
102
RTVSPropertyOp36
 70
     1
102
RTVSPropertyOp37
 70
     1
102
RTVSPropertyOp38
 70
     1
102
RTVSPropertyOp39
 70
     1
102
RTVSPropertyOp40
 70
     1
102
RTVSPropertyOp41
 70
     1
102
RTVSPropertyOp42
 70
     1
102
RTVSPropertyOp43
 70
     1
102
RTVSPropertyOp44
 70
     1
102
RTVSPropertyOp45
 70
     1
102
RTVSPropertyOp46
 70
     1
102
RTVSPropertyOp47
 70
     1
102
RTVSPropertyOp48
 70
     1
102
RTVSPropertyOp49
 70
     1
102
RTVSPropertyOp50
 70
     1
102
RTVSPropertyOp51
 70
     0
102
RTVSPropertyOp52
 70
     0
102
RTVSPropertyOp53
 70
     1
102
RTVSPropertyOp54
 70
     1
102
RTVSPropertyOp55
 70
     1
102
RTVSPropertyOp56
 70
     1
102
RTVSPropertyOp57
 70
     1
102
RTVSPropertyOp58
 70
     1
102
RTVSPropertyOp59
 70
     1
102
RTVSPropertyOp60
 70
     1
102
RTVSPropertyOp61
 70
     1
102
RTVSPropertyOp62
 70
     1
  0
XRECORD
  5
501
102
{ACAD_REACTORS
330
500
102
}
330
500
100
AcDbXrecord
280
     1
102
RTVSPost2010Prop28
280
     0
102
RTVSPost2010PropOp28
 70
     1
102
RTVSPost2010Prop29
280
     1
102
RTVSPost2010PropOp29
 70
     1
102
RTVSPost2010Prop30
280
     1
102
RTVSPost2010PropOp30
 70
     1
102
RTVSPost2010Prop31
280
     0
102
RTVSPost2010PropOp31
 70
     1
102
RTVSPost2010Prop32
280
     0
102
RTVSPost2010PropOp32
 70
     1
102
RTVSPost2010Prop33
280
     0
102
RTVSPost2010PropOp33
 70
     1
102
RTVSPost2010Prop34
280
     0
102
RTVSPost2010PropOp34
 70
     1
102
RTVSPost2010Prop35
280
     0
102
RTVSPost2010PropOp35
 70
     1
102
RTVSPost2010Prop36
280
     0
102
RTVSPost2010PropOp36
 70
     1
102
RTVSPost2010Prop37
 90
       50
102
RTVSPost2010PropOp37
 70
     1
102
RTVSPost2010Prop38
140
0.0
102
RTVSPost2010PropOp38
 70
     1
102
RTVSPost2010Prop39
140
1.0
102
RTVSPost2010PropOp39
 70
     1
102
RTVSPost2010Prop40
 90
        0
102
RTVSPost2010PropOp40
 70
     1
102
RTVSPost2010Prop41ColorIndex
 90
       18
102
RTVSPost2010Prop41ColorRGB
 90
        0
102
RTVSPost2010PropOp41
 70
     1
102
RTVSPost2010Prop42
 90
       50
102
RTVSPost2010PropOp42
 70
     1
102
RTVSPost2010Prop43
 90
        3
102
RTVSPost2010PropOp43
 70
     1
102
RTVSPost2010Prop44ColorIndex
 90
        5
102
RTVSPost2010Prop44ColorRGB
 90
      255
102
RTVSPost2010PropOp44
 70
     1
102
RTVSPost2010Prop45
280
     0
102
RTVSPost2010PropOp45
 70
     1
102
RTVSPost2010Prop46
 90
       50
102
RTVSPost2010PropOp46
 70
     1
102
RTVSPost2010Prop47
 90
       50
102
RTVSPost2010PropOp47
 70
     1
102
RTVSPost2010Prop48
 90
       50
102
RTVSPost2010PropOp48
 70
     1
102
RTVSPost2010Prop49
280
     0
102
RTVSPost2010PropOp49
 70
     1
102
RTVSPost2010Prop50
 90
       50
102
RTVSPost2010PropOp50
 70
     1
102
RTVSPost2010Prop51ColorIndex
 90
      256
102
RTVSPost2010Prop51ColorRGB
 90
-16777216
102
RTVSPost2010PropOp51
 70
     0
102
RTVSPost2010Prop52
140
1.0
102
RTVSPost2010PropOp52
 70
     0
102
RTVSPost2010Prop53
 90
        2
102
RTVSPost2010PropOp53
 70
     1
102
RTVSPost2010Prop54
  1
strokes_ogs.tif
102
RTVSPost2010PropOp54
 70
     1
102
RTVSPost2010Prop55
280
     0
102
RTVSPost2010PropOp55
 70
     1
102
RTVSPost2010Prop56
140
1.0
102
RTVSPost2010PropOp56
 70
     1
102
RTVSPost2010Prop57
140
1.0
102
RTVSPost2010PropOp57
 70
     1
102
RTVSPropertyOp0
 70
     1
102
RTVSPropertyOp1
 70
     1
102
RTVSPropertyOp2
 70
     1
102
RTVSPropertyOp3
 70
     1
102
RTVSPropertyOp4
 70
     1
102
RTVSPropertyOp5
 70
     1
102
RTVSPropertyOp6
 70
     1
102
RTVSPropertyOp7
 70
     1
102
RTVSPropertyOp8
 70
     1
102
RTVSPropertyOp9
 70
     1
102
RTVSPropertyOp10
 70
     1
102
RTVSPropertyOp11
 70
     1
102
RTVSPropertyOp12
 70
     1
102
RTVSPropertyOp13
 70
     1
102
RTVSPropertyOp14
 70
     1
102
RTVSPropertyOp15
 70
     1
102
RTVSPropertyOp16
 70
     1
102
RTVSPropertyOp17
 70
     1
102
RTVSPropertyOp18
 70
     1
102
RTVSPropertyOp19
 70
     1
102
RTVSPropertyOp20
 70
     1
102
RTVSPropertyOp21
 70
     1
102
RTVSPropertyOp22
 70
     1
102
RTVSPropertyOp23
 70
     1
102
RTVSPropertyOp24
 70
     1
102
RTVSPropertyOp25
 70
     1
102
RTVSPropertyOp26
 70
     1
102
RTVSPropertyOp27
 70
     1
102
RTVSPropertyOp28
 70
     1
102
RTVSPropertyOp29
 70
     1
102
RTVSPropertyOp30
 70
     1
102
RTVSPropertyOp31
 70
     1
102
RTVSPropertyOp32
 70
     1
102
RTVSPropertyOp33
 70
     1
102
RTVSPropertyOp34
 70
     1
102
RTVSPropertyOp35
 70
     1
102
RTVSPropertyOp36
 70
     1
102
RTVSPropertyOp37
 70
     1
102
RTVSPropertyOp38
 70
     1
102
RTVSPropertyOp39
 70
     1
102
RTVSPropertyOp40
 70
     1
102
RTVSPropertyOp41
 70
     1
102
RTVSPropertyOp42
 70
     1
102
RTVSPropertyOp43
 70
     1
102
RTVSPropertyOp44
 70
     1
102
RTVSPropertyOp45
 70
     1
102
RTVSPropertyOp46
 70
     1
102
RTVSPropertyOp47
 70
     1
102
RTVSPropertyOp48
 70
     1
102
RTVSPropertyOp49
 70
     1
102
RTVSPropertyOp50
 70
     1
102
RTVSPropertyOp51
 70
     0
102
RTVSPropertyOp52
 70
     0
102
RTVSPropertyOp53
 70
     1
102
RTVSPropertyOp54
 70
     1
102
RTVSPropertyOp55
 70
     1
102
RTVSPropertyOp56
 70
     1
102
RTVSPropertyOp57
 70
     1
102
RTVSPropertyOp58
 70
     1
102
RTVSPropertyOp59
 70
     1
102
RTVSPropertyOp60
 70
     1
102
RTVSPropertyOp61
 70
     1
102
RTVSPropertyOp62
 70
     1
  0
XRECORD
  5
509
102
{ACAD_REACTORS
330
508
102
}
330
508
100
AcDbXrecord
280
     1
102
RTVSPost2010Prop28
280
     0
102
RTVSPost2010PropOp28
 70
     1
102
RTVSPost2010Prop29
280
     1
102
RTVSPost2010PropOp29
 70
     1
102
RTVSPost2010Prop30
280
     1
102
RTVSPost2010PropOp30
 70
     1
102
RTVSPost2010Prop31
280
     0
102
RTVSPost2010PropOp31
 70
     1
102
RTVSPost2010Prop32
280
     0
102
RTVSPost2010PropOp32
 70
     1
102
RTVSPost2010Prop33
280
     0
102
RTVSPost2010PropOp33
 70
     1
102
RTVSPost2010Prop34
280
     0
102
RTVSPost2010PropOp34
 70
     1
102
RTVSPost2010Prop35
280
     0
102
RTVSPost2010PropOp35
 70
     1
102
RTVSPost2010Prop36
280
     0
102
RTVSPost2010PropOp36
 70
     1
102
RTVSPost2010Prop37
 90
       50
102
RTVSPost2010PropOp37
 70
     1
102
RTVSPost2010Prop38
140
0.0
102
RTVSPost2010PropOp38
 70
     1
102
RTVSPost2010Prop39
140
1.0
102
RTVSPost2010PropOp39
 70
     1
102
RTVSPost2010Prop40
 90
        0
102
RTVSPost2010PropOp40
 70
     1
102
RTVSPost2010Prop41ColorIndex
 90
       18
102
RTVSPost2010Prop41ColorRGB
 90
        0
102
RTVSPost2010PropOp41
 70
     1
102
RTVSPost2010Prop42
 90
       50
102
RTVSPost2010PropOp42
 70
     1
102
RTVSPost2010Prop43
 90
        3
102
RTVSPost2010PropOp43
 70
     1
102
RTVSPost2010Prop44ColorIndex
 90
        5
102
RTVSPost2010Prop44ColorRGB
 90
      255
102
RTVSPost2010PropOp44
 70
     1
102
RTVSPost2010Prop45
280
     0
102
RTVSPost2010PropOp45
 70
     1
102
RTVSPost2010Prop46
 90
       50
102
RTVSPost2010PropOp46
 70
     1
102
RTVSPost2010Prop47
 90
       50
102
RTVSPost2010PropOp47
 70
     1
102
RTVSPost2010Prop48
 90
       50
102
RTVSPost2010PropOp48
 70
     1
102
RTVSPost2010Prop49
280
     0
102
RTVSPost2010PropOp49
 70
     1
102
RTVSPost2010Prop50
 90
       50
102
RTVSPost2010PropOp50
 70
     1
102
RTVSPost2010Prop51ColorIndex
 90
      256
102
RTVSPost2010Prop51ColorRGB
 90
-16777216
102
RTVSPost2010PropOp51
 70
     0
102
RTVSPost2010Prop52
140
1.0
102
RTVSPost2010PropOp52
 70
     0
102
RTVSPost2010Prop53
 90
        2
102
RTVSPost2010PropOp53
 70
     1
102
RTVSPost2010Prop54
  1
strokes_ogs.tif
102
RTVSPost2010PropOp54
 70
     1
102
RTVSPost2010Prop55
280
     0
102
RTVSPost2010PropOp55
 70
     1
102
RTVSPost2010Prop56
140
1.0
102
RTVSPost2010PropOp56
 70
     1
102
RTVSPost2010Prop57
140
1.0
102
RTVSPost2010PropOp57
 70
     1
102
RTVSPropertyOp0
 70
     1
102
RTVSPropertyOp1
 70
     1
102
RTVSPropertyOp2
 70
     1
102
RTVSPropertyOp3
 70
     1
102
RTVSPropertyOp4
 70
     1
102
RTVSPropertyOp5
 70
     1
102
RTVSPropertyOp6
 70
     1
102
RTVSPropertyOp7
 70
     1
102
RTVSPropertyOp8
 70
     1
102
RTVSPropertyOp9
 70
     1
102
RTVSPropertyOp10
 70
     1
102
RTVSPropertyOp11
 70
     1
102
RTVSPropertyOp12
 70
     1
102
RTVSPropertyOp13
 70
     1
102
RTVSPropertyOp14
 70
     1
102
RTVSPropertyOp15
 70
     1
102
RTVSPropertyOp16
 70
     1
102
RTVSPropertyOp17
 70
     1
102
RTVSPropertyOp18
 70
     1
102
RTVSPropertyOp19
 70
     1
102
RTVSPropertyOp20
 70
     1
102
RTVSPropertyOp21
 70
     1
102
RTVSPropertyOp22
 70
     1
102
RTVSPropertyOp23
 70
     1
102
RTVSPropertyOp24
 70
     1
102
RTVSPropertyOp25
 70
     1
102
RTVSPropertyOp26
 70
     1
102
RTVSPropertyOp27
 70
     1
102
RTVSPropertyOp28
 70
     1
102
RTVSPropertyOp29
 70
     1
102
RTVSPropertyOp30
 70
     1
102
RTVSPropertyOp31
 70
     1
102
RTVSPropertyOp32
 70
     1
102
RTVSPropertyOp33
 70
     1
102
RTVSPropertyOp34
 70
     1
102
RTVSPropertyOp35
 70
     1
102
RTVSPropertyOp36
 70
     1
102
RTVSPropertyOp37
 70
     1
102
RTVSPropertyOp38
 70
     1
102
RTVSPropertyOp39
 70
     1
102
RTVSPropertyOp40
 70
     1
102
RTVSPropertyOp41
 70
     1
102
RTVSPropertyOp42
 70
     1
102
RTVSPropertyOp43
 70
     1
102
RTVSPropertyOp44
 70
     1
102
RTVSPropertyOp45
 70
     1
102
RTVSPropertyOp46
 70
     1
102
RTVSPropertyOp47
 70
     1
102
RTVSPropertyOp48
 70
     1
102
RTVSPropertyOp49
 70
     1
102
RTVSPropertyOp50
 70
     1
102
RTVSPropertyOp51
 70
     0
102
RTVSPropertyOp52
 70
     0
102
RTVSPropertyOp53
 70
     1
102
RTVSPropertyOp54
 70
     1
102
RTVSPropertyOp55
 70
     1
102
RTVSPropertyOp56
 70
     1
102
RTVSPropertyOp57
 70
     1
102
RTVSPropertyOp58
 70
     1
102
RTVSPropertyOp59
 70
     1
102
RTVSPropertyOp60
 70
     1
102
RTVSPropertyOp61
 70
     1
102
RTVSPropertyOp62
 70
     1
  0
XRECORD
  5
4FD
102
{ACAD_REACTORS
330
4FC
102
}
330
4FC
100
AcDbXrecord
280
     1
102
RTVSPost2010Prop28
280
     0
102
RTVSPost2010PropOp28
 70
     1
102
RTVSPost2010Prop29
280
     1
102
RTVSPost2010PropOp29
 70
     1
102
RTVSPost2010Prop30
280
     1
102
RTVSPost2010PropOp30
 70
     1
102
RTVSPost2010Prop31
280
     0
102
RTVSPost2010PropOp31
 70
     1
102
RTVSPost2010Prop32
280
     0
102
RTVSPost2010PropOp32
 70
     1
102
RTVSPost2010Prop33
280
     0
102
RTVSPost2010PropOp33
 70
     1
102
RTVSPost2010Prop34
280
     0
102
RTVSPost2010PropOp34
 70
     1
102
RTVSPost2010Prop35
280
     0
102
RTVSPost2010PropOp35
 70
     1
102
RTVSPost2010Prop36
280
     0
102
RTVSPost2010PropOp36
 70
     1
102
RTVSPost2010Prop37
 90
       50
102
RTVSPost2010PropOp37
 70
     1
102
RTVSPost2010Prop38
140
0.0
102
RTVSPost2010PropOp38
 70
     1
102
RTVSPost2010Prop39
140
1.0
102
RTVSPost2010PropOp39
 70
     1
102
RTVSPost2010Prop40
 90
        0
102
RTVSPost2010PropOp40
 70
     1
102
RTVSPost2010Prop41ColorIndex
 90
       18
102
RTVSPost2010Prop41ColorRGB
 90
        0
102
RTVSPost2010PropOp41
 70
     1
102
RTVSPost2010Prop42
 90
       50
102
RTVSPost2010PropOp42
 70
     1
102
RTVSPost2010Prop43
 90
        3
102
RTVSPost2010PropOp43
 70
     1
102
RTVSPost2010Prop44ColorIndex
 90
        5
102
RTVSPost2010Prop44ColorRGB
 90
      255
102
RTVSPost2010PropOp44
 70
     1
102
RTVSPost2010Prop45
280
     0
102
RTVSPost2010PropOp45
 70
     1
102
RTVSPost2010Prop46
 90
       50
102
RTVSPost2010PropOp46
 70
     1
102
RTVSPost2010Prop47
 90
       50
102
RTVSPost2010PropOp47
 70
     1
102
RTVSPost2010Prop48
 90
       50
102
RTVSPost2010PropOp48
 70
     1
102
RTVSPost2010Prop49
280
     0
102
RTVSPost2010PropOp49
 70
     1
102
RTVSPost2010Prop50
 90
       50
102
RTVSPost2010PropOp50
 70
     1
102
RTVSPost2010Prop51ColorIndex
 90
      256
102
RTVSPost2010Prop51ColorRGB
 90
-16777216
102
RTVSPost2010PropOp51
 70
     0
102
RTVSPost2010Prop52
140
1.0
102
RTVSPost2010PropOp52
 70
     0
102
RTVSPost2010Prop53
 90
        2
102
RTVSPost2010PropOp53
 70
     1
102
RTVSPost2010Prop54
  1
strokes_ogs.tif
102
RTVSPost2010PropOp54
 70
     1
102
RTVSPost2010Prop55
280
     0
102
RTVSPost2010PropOp55
 70
     1
102
RTVSPost2010Prop56
140
1.0
102
RTVSPost2010PropOp56
 70
     1
102
RTVSPost2010Prop57
140
1.0
102
RTVSPost2010PropOp57
 70
     1
102
RTVSPropertyOp0
 70
     1
102
RTVSPropertyOp1
 70
     1
102
RTVSPropertyOp2
 70
     1
102
RTVSPropertyOp3
 70
     1
102
RTVSPropertyOp4
 70
     1
102
RTVSPropertyOp5
 70
     1
102
RTVSPropertyOp6
 70
     1
102
RTVSPropertyOp7
 70
     1
102
RTVSPropertyOp8
 70
     1
102
RTVSPropertyOp9
 70
     1
102
RTVSPropertyOp10
 70
     1
102
RTVSPropertyOp11
 70
     1
102
RTVSPropertyOp12
 70
     1
102
RTVSPropertyOp13
 70
     1
102
RTVSPropertyOp14
 70
     1
102
RTVSPropertyOp15
 70
     1
102
RTVSPropertyOp16
 70
     1
102
RTVSPropertyOp17
 70
     1
102
RTVSPropertyOp18
 70
     1
102
RTVSPropertyOp19
 70
     1
102
RTVSPropertyOp20
 70
     1
102
RTVSPropertyOp21
 70
     1
102
RTVSPropertyOp22
 70
     1
102
RTVSPropertyOp23
 70
     1
102
RTVSPropertyOp24
 70
     1
102
RTVSPropertyOp25
 70
     1
102
RTVSPropertyOp26
 70
     1
102
RTVSPropertyOp27
 70
     1
102
RTVSPropertyOp28
 70
     1
102
RTVSPropertyOp29
 70
     1
102
RTVSPropertyOp30
 70
     1
102
RTVSPropertyOp31
 70
     1
102
RTVSPropertyOp32
 70
     1
102
RTVSPropertyOp33
 70
     1
102
RTVSPropertyOp34
 70
     1
102
RTVSPropertyOp35
 70
     1
102
RTVSPropertyOp36
 70
     1
102
RTVSPropertyOp37
 70
     1
102
RTVSPropertyOp38
 70
     1
102
RTVSPropertyOp39
 70
     1
102
RTVSPropertyOp40
 70
     1
102
RTVSPropertyOp41
 70
     1
102
RTVSPropertyOp42
 70
     1
102
RTVSPropertyOp43
 70
     1
102
RTVSPropertyOp44
 70
     1
102
RTVSPropertyOp45
 70
     1
102
RTVSPropertyOp46
 70
     1
102
RTVSPropertyOp47
 70
     1
102
RTVSPropertyOp48
 70
     1
102
RTVSPropertyOp49
 70
     1
102
RTVSPropertyOp50
 70
     1
102
RTVSPropertyOp51
 70
     0
102
RTVSPropertyOp52
 70
     0
102
RTVSPropertyOp53
 70
     1
102
RTVSPropertyOp54
 70
     1
102
RTVSPropertyOp55
 70
     1
102
RTVSPropertyOp56
 70
     1
102
RTVSPropertyOp57
 70
     1
102
RTVSPropertyOp58
 70
     1
102
RTVSPropertyOp59
 70
     1
102
RTVSPropertyOp60
 70
     1
102
RTVSPropertyOp61
 70
     1
102
RTVSPropertyOp62
 70
     1
  0
XRECORD
  5
4FF
102
{ACAD_REACTORS
330
4FE
102
}
330
4FE
100
AcDbXrecord
280
     1
102
RTVSPost2010Prop28
280
     0
102
RTVSPost2010PropOp28
 70
     1
102
RTVSPost2010Prop29
280
     1
102
RTVSPost2010PropOp29
 70
     1
102
RTVSPost2010Prop30
280
     1
102
RTVSPost2010PropOp30
 70
     1
102
RTVSPost2010Prop31
280
     0
102
RTVSPost2010PropOp31
 70
     1
102
RTVSPost2010Prop32
280
     0
102
RTVSPost2010PropOp32
 70
     1
102
RTVSPost2010Prop33
280
     0
102
RTVSPost2010PropOp33
 70
     1
102
RTVSPost2010Prop34
280
     0
102
RTVSPost2010PropOp34
 70
     1
102
RTVSPost2010Prop35
280
     0
102
RTVSPost2010PropOp35
 70
     1
102
RTVSPost2010Prop36
280
     0
102
RTVSPost2010PropOp36
 70
     1
102
RTVSPost2010Prop37
 90
       50
102
RTVSPost2010PropOp37
 70
     1
102
RTVSPost2010Prop38
140
0.0
102
RTVSPost2010PropOp38
 70
     1
102
RTVSPost2010Prop39
140
1.0
102
RTVSPost2010PropOp39
 70
     1
102
RTVSPost2010Prop40
 90
        0
102
RTVSPost2010PropOp40
 70
     1
102
RTVSPost2010Prop41ColorIndex
 90
       18
102
RTVSPost2010Prop41ColorRGB
 90
        0
102
RTVSPost2010PropOp41
 70
     1
102
RTVSPost2010Prop42
 90
       50
102
RTVSPost2010PropOp42
 70
     1
102
RTVSPost2010Prop43
 90
        3
102
RTVSPost2010PropOp43
 70
     1
102
RTVSPost2010Prop44ColorIndex
 90
        5
102
RTVSPost2010Prop44ColorRGB
 90
      255
102
RTVSPost2010PropOp44
 70
     1
102
RTVSPost2010Prop45
280
     0
102
RTVSPost2010PropOp45
 70
     1
102
RTVSPost2010Prop46
 90
       50
102
RTVSPost2010PropOp46
 70
     1
102
RTVSPost2010Prop47
 90
       50
102
RTVSPost2010PropOp47
 70
     1
102
RTVSPost2010Prop48
 90
       50
102
RTVSPost2010PropOp48
 70
     1
102
RTVSPost2010Prop49
280
     0
102
RTVSPost2010PropOp49
 70
     1
102
RTVSPost2010Prop50
 90
       50
102
RTVSPost2010PropOp50
 70
     1
102
RTVSPost2010Prop51ColorIndex
 90
      256
102
RTVSPost2010Prop51ColorRGB
 90
-16777216
102
RTVSPost2010PropOp51
 70
     0
102
RTVSPost2010Prop52
140
1.0
102
RTVSPost2010PropOp52
 70
     0
102
RTVSPost2010Prop53
 90
        2
102
RTVSPost2010PropOp53
 70
     1
102
RTVSPost2010Prop54
  1
strokes_ogs.tif
102
RTVSPost2010PropOp54
 70
     1
102
RTVSPost2010Prop55
280
     0
102
RTVSPost2010PropOp55
 70
     1
102
RTVSPost2010Prop56
140
1.0
102
RTVSPost2010PropOp56
 70
     1
102
RTVSPost2010Prop57
140
1.0
102
RTVSPost2010PropOp57
 70
     1
102
RTVSPropertyOp0
 70
     1
102
RTVSPropertyOp1
 70
     1
102
RTVSPropertyOp2
 70
     1
102
RTVSPropertyOp3
 70
     1
102
RTVSPropertyOp4
 70
     1
102
RTVSPropertyOp5
 70
     1
102
RTVSPropertyOp6
 70
     1
102
RTVSPropertyOp7
 70
     1
102
RTVSPropertyOp8
 70
     1
102
RTVSPropertyOp9
 70
     1
102
RTVSPropertyOp10
 70
     1
102
RTVSPropertyOp11
 70
     1
102
RTVSPropertyOp12
 70
     1
102
RTVSPropertyOp13
 70
     1
102
RTVSPropertyOp14
 70
     1
102
RTVSPropertyOp15
 70
     1
102
RTVSPropertyOp16
 70
     1
102
RTVSPropertyOp17
 70
     1
102
RTVSPropertyOp18
 70
     1
102
RTVSPropertyOp19
 70
     1
102
RTVSPropertyOp20
 70
     1
102
RTVSPropertyOp21
 70
     1
102
RTVSPropertyOp22
 70
     1
102
RTVSPropertyOp23
 70
     1
102
RTVSPropertyOp24
 70
     1
102
RTVSPropertyOp25
 70
     1
102
RTVSPropertyOp26
 70
     1
102
RTVSPropertyOp27
 70
     1
102
RTVSPropertyOp28
 70
     1
102
RTVSPropertyOp29
 70
     1
102
RTVSPropertyOp30
 70
     1
102
RTVSPropertyOp31
 70
     1
102
RTVSPropertyOp32
 70
     1
102
RTVSPropertyOp33
 70
     1
102
RTVSPropertyOp34
 70
     1
102
RTVSPropertyOp35
 70
     1
102
RTVSPropertyOp36
 70
     1
102
RTVSPropertyOp37
 70
     1
102
RTVSPropertyOp38
 70
     1
102
RTVSPropertyOp39
 70
     1
102
RTVSPropertyOp40
 70
     1
102
RTVSPropertyOp41
 70
     1
102
RTVSPropertyOp42
 70
     1
102
RTVSPropertyOp43
 70
     1
102
RTVSPropertyOp44
 70
     1
102
RTVSPropertyOp45
 70
     1
102
RTVSPropertyOp46
 70
     1
102
RTVSPropertyOp47
 70
     1
102
RTVSPropertyOp48
 70
     1
102
RTVSPropertyOp49
 70
     1
102
RTVSPropertyOp50
 70
     1
102
RTVSPropertyOp51
 70
     0
102
RTVSPropertyOp52
 70
     0
102
RTVSPropertyOp53
 70
     1
102
RTVSPropertyOp54
 70
     1
102
RTVSPropertyOp55
 70
     1
102
RTVSPropertyOp56
 70
     1
102
RTVSPropertyOp57
 70
     1
102
RTVSPropertyOp58
 70
     1
102
RTVSPropertyOp59
 70
     1
102
RTVSPropertyOp60
 70
     1
102
RTVSPropertyOp61
 70
     1
102
RTVSPropertyOp62
 70
     1
  0
XRECORD
  5
50F
102
{ACAD_REACTORS
330
50E
102
}
330
50E
100
AcDbXrecord
280
     1
102
RTVSPost2010Prop28
280
     0
102
RTVSPost2010PropOp28
 70
     1
102
RTVSPost2010Prop29
280
     1
102
RTVSPost2010PropOp29
 70
     1
102
RTVSPost2010Prop30
280
     1
102
RTVSPost2010PropOp30
 70
     1
102
RTVSPost2010Prop31
280
     0
102
RTVSPost2010PropOp31
 70
     1
102
RTVSPost2010Prop32
280
     0
102
RTVSPost2010PropOp32
 70
     1
102
RTVSPost2010Prop33
280
     0
102
RTVSPost2010PropOp33
 70
     1
102
RTVSPost2010Prop34
280
     0
102
RTVSPost2010PropOp34
 70
     1
102
RTVSPost2010Prop35
280
     0
102
RTVSPost2010PropOp35
 70
     1
102
RTVSPost2010Prop36
280
     0
102
RTVSPost2010PropOp36
 70
     1
102
RTVSPost2010Prop37
 90
       50
102
RTVSPost2010PropOp37
 70
     1
102
RTVSPost2010Prop38
140
0.0
102
RTVSPost2010PropOp38
 70
     1
102
RTVSPost2010Prop39
140
1.0
102
RTVSPost2010PropOp39
 70
     1
102
RTVSPost2010Prop40
 90
        0
102
RTVSPost2010PropOp40
 70
     1
102
RTVSPost2010Prop41ColorIndex
 90
       18
102
RTVSPost2010Prop41ColorRGB
 90
        0
102
RTVSPost2010PropOp41
 70
     1
102
RTVSPost2010Prop42
 90
       50
102
RTVSPost2010PropOp42
 70
     1
102
RTVSPost2010Prop43
 90
        3
102
RTVSPost2010PropOp43
 70
     1
102
RTVSPost2010Prop44ColorIndex
 90
        5
102
RTVSPost2010Prop44ColorRGB
 90
      255
102
RTVSPost2010PropOp44
 70
     1
102
RTVSPost2010Prop45
280
     0
102
RTVSPost2010PropOp45
 70
     1
102
RTVSPost2010Prop46
 90
       50
102
RTVSPost2010PropOp46
 70
     1
102
RTVSPost2010Prop47
 90
       50
102
RTVSPost2010PropOp47
 70
     1
102
RTVSPost2010Prop48
 90
       50
102
RTVSPost2010PropOp48
 70
     1
102
RTVSPost2010Prop49
280
     0
102
RTVSPost2010PropOp49
 70
     1
102
RTVSPost2010Prop50
 90
       50
102
RTVSPost2010PropOp50
 70
     1
102
RTVSPost2010Prop51ColorIndex
 90
      256
102
RTVSPost2010Prop51ColorRGB
 90
-16777216
102
RTVSPost2010PropOp51
 70
     0
102
RTVSPost2010Prop52
140
1.0
102
RTVSPost2010PropOp52
 70
     0
102
RTVSPost2010Prop53
 90
        2
102
RTVSPost2010PropOp53
 70
     1
102
RTVSPost2010Prop54
  1
strokes_ogs.tif
102
RTVSPost2010PropOp54
 70
     1
102
RTVSPost2010Prop55
280
     0
102
RTVSPost2010PropOp55
 70
     1
102
RTVSPost2010Prop56
140
1.0
102
RTVSPost2010PropOp56
 70
     1
102
RTVSPost2010Prop57
140
1.0
102
RTVSPost2010PropOp57
 70
     1
102
RTVSPropertyOp0
 70
     0
102
RTVSPropertyOp1
 70
     0
102
RTVSPropertyOp2
 70
     0
102
RTVSPropertyOp3
 70
     0
102
RTVSPropertyOp4
 70
     0
102
RTVSPropertyOp5
 70
     0
102
RTVSPropertyOp6
 70
     0
102
RTVSPropertyOp7
 70
     0
102
RTVSPropertyOp8
 70
     0
102
RTVSPropertyOp9
 70
     0
102
RTVSPropertyOp10
 70
     0
102
RTVSPropertyOp11
 70
     0
102
RTVSPropertyOp12
 70
     0
102
RTVSPropertyOp13
 70
     0
102
RTVSPropertyOp14
 70
     0
102
RTVSPropertyOp15
 70
     0
102
RTVSPropertyOp16
 70
     0
102
RTVSPropertyOp17
 70
     0
102
RTVSPropertyOp18
 70
     0
102
RTVSPropertyOp19
 70
     0
102
RTVSPropertyOp20
 70
     0
102
RTVSPropertyOp21
 70
     0
102
RTVSPropertyOp22
 70
     0
102
RTVSPropertyOp23
 70
     0
102
RTVSPropertyOp24
 70
     0
102
RTVSPropertyOp25
 70
     0
102
RTVSPropertyOp26
 70
     0
102
RTVSPropertyOp27
 70
     0
102
RTVSPropertyOp28
 70
     1
102
RTVSPropertyOp29
 70
     1
102
RTVSPropertyOp30
 70
     1
102
RTVSPropertyOp31
 70
     1
102
RTVSPropertyOp32
 70
     1
102
RTVSPropertyOp33
 70
     1
102
RTVSPropertyOp34
 70
     1
102
RTVSPropertyOp35
 70
     1
102
RTVSPropertyOp36
 70
     1
102
RTVSPropertyOp37
 70
     1
102
RTVSPropertyOp38
 70
     1
102
RTVSPropertyOp39
 70
     1
102
RTVSPropertyOp40
 70
     1
102
RTVSPropertyOp41
 70
     1
102
RTVSPropertyOp42
 70
     1
102
RTVSPropertyOp43
 70
     1
102
RTVSPropertyOp44
 70
     1
102
RTVSPropertyOp45
 70
     1
102
RTVSPropertyOp46
 70
     1
102
RTVSPropertyOp47
 70
     1
102
RTVSPropertyOp48
 70
     1
102
RTVSPropertyOp49
 70
     1
102
RTVSPropertyOp50
 70
     1
102
RTVSPropertyOp51
 70
     0
102
RTVSPropertyOp52
 70
     0
102
RTVSPropertyOp53
 70
     1
102
RTVSPropertyOp54
 70
     1
102
RTVSPropertyOp55
 70
     1
102
RTVSPropertyOp56
 70
     1
102
RTVSPropertyOp57
 70
     1
102
RTVSPropertyOp58
 70
     1
102
RTVSPropertyOp59
 70
     1
102
RTVSPropertyOp60
 70
     1
102
RTVSPropertyOp61
 70
     1
102
RTVSPropertyOp62
 70
     1
  0
XRECORD
  5
507
102
{ACAD_REACTORS
330
506
102
}
330
506
100
AcDbXrecord
280
     1
102
RTVSPost2010Prop28
280
     0
102
RTVSPost2010PropOp28
 70
     1
102
RTVSPost2010Prop29
280
     1
102
RTVSPost2010PropOp29
 70
     1
102
RTVSPost2010Prop30
280
     1
102
RTVSPost2010PropOp30
 70
     1
102
RTVSPost2010Prop31
280
     0
102
RTVSPost2010PropOp31
 70
     1
102
RTVSPost2010Prop32
280
     0
102
RTVSPost2010PropOp32
 70
     1
102
RTVSPost2010Prop33
280
     0
102
RTVSPost2010PropOp33
 70
     1
102
RTVSPost2010Prop34
280
     0
102
RTVSPost2010PropOp34
 70
     1
102
RTVSPost2010Prop35
280
     0
102
RTVSPost2010PropOp35
 70
     1
102
RTVSPost2010Prop36
280
     0
102
RTVSPost2010PropOp36
 70
     1
102
RTVSPost2010Prop37
 90
       50
102
RTVSPost2010PropOp37
 70
     1
102
RTVSPost2010Prop38
140
0.0
102
RTVSPost2010PropOp38
 70
     1
102
RTVSPost2010Prop39
140
1.0
102
RTVSPost2010PropOp39
 70
     1
102
RTVSPost2010Prop40
 90
        0
102
RTVSPost2010PropOp40
 70
     1
102
RTVSPost2010Prop41ColorIndex
 90
       18
102
RTVSPost2010Prop41ColorRGB
 90
        0
102
RTVSPost2010PropOp41
 70
     1
102
RTVSPost2010Prop42
 90
       50
102
RTVSPost2010PropOp42
 70
     1
102
RTVSPost2010Prop43
 90
        3
102
RTVSPost2010PropOp43
 70
     1
102
RTVSPost2010Prop44ColorIndex
 90
        5
102
RTVSPost2010Prop44ColorRGB
 90
      255
102
RTVSPost2010PropOp44
 70
     1
102
RTVSPost2010Prop45
280
     0
102
RTVSPost2010PropOp45
 70
     1
102
RTVSPost2010Prop46
 90
       50
102
RTVSPost2010PropOp46
 70
     1
102
RTVSPost2010Prop47
 90
       50
102
RTVSPost2010PropOp47
 70
     1
102
RTVSPost2010Prop48
 90
       50
102
RTVSPost2010PropOp48
 70
     1
102
RTVSPost2010Prop49
280
     0
102
RTVSPost2010PropOp49
 70
     1
102
RTVSPost2010Prop50
 90
       50
102
RTVSPost2010PropOp50
 70
     1
102
RTVSPost2010Prop51ColorIndex
 90
      256
102
RTVSPost2010Prop51ColorRGB
 90
-16777216
102
RTVSPost2010PropOp51
 70
     0
102
RTVSPost2010Prop52
140
1.0
102
RTVSPost2010PropOp52
 70
     0
102
RTVSPost2010Prop53
 90
        2
102
RTVSPost2010PropOp53
 70
     1
102
RTVSPost2010Prop54
  1
strokes_ogs.tif
102
RTVSPost2010PropOp54
 70
     1
102
RTVSPost2010Prop55
280
     0
102
RTVSPost2010PropOp55
 70
     1
102
RTVSPost2010Prop56
140
1.0
102
RTVSPost2010PropOp56
 70
     1
102
RTVSPost2010Prop57
140
1.0
102
RTVSPost2010PropOp57
 70
     1
102
RTVSPropertyOp0
 70
     1
102
RTVSPropertyOp1
 70
     1
102
RTVSPropertyOp2
 70
     1
102
RTVSPropertyOp3
 70
     1
102
RTVSPropertyOp4
 70
     1
102
RTVSPropertyOp5
 70
     1
102
RTVSPropertyOp6
 70
     1
102
RTVSPropertyOp7
 70
     1
102
RTVSPropertyOp8
 70
     1
102
RTVSPropertyOp9
 70
     1
102
RTVSPropertyOp10
 70
     1
102
RTVSPropertyOp11
 70
     1
102
RTVSPropertyOp12
 70
     1
102
RTVSPropertyOp13
 70
     1
102
RTVSPropertyOp14
 70
     1
102
RTVSPropertyOp15
 70
     1
102
RTVSPropertyOp16
 70
     1
102
RTVSPropertyOp17
 70
     1
102
RTVSPropertyOp18
 70
     1
102
RTVSPropertyOp19
 70
     1
102
RTVSPropertyOp20
 70
     1
102
RTVSPropertyOp21
 70
     1
102
RTVSPropertyOp22
 70
     1
102
RTVSPropertyOp23
 70
     1
102
RTVSPropertyOp24
 70
     1
102
RTVSPropertyOp25
 70
     1
102
RTVSPropertyOp26
 70
     1
102
RTVSPropertyOp27
 70
     1
102
RTVSPropertyOp28
 70
     1
102
RTVSPropertyOp29
 70
     1
102
RTVSPropertyOp30
 70
     1
102
RTVSPropertyOp31
 70
     1
102
RTVSPropertyOp32
 70
     1
102
RTVSPropertyOp33
 70
     1
102
RTVSPropertyOp34
 70
     1
102
RTVSPropertyOp35
 70
     1
102
RTVSPropertyOp36
 70
     1
102
RTVSPropertyOp37
 70
     1
102
RTVSPropertyOp38
 70
     1
102
RTVSPropertyOp39
 70
     1
102
RTVSPropertyOp40
 70
     1
102
RTVSPropertyOp41
 70
     1
102
RTVSPropertyOp42
 70
     1
102
RTVSPropertyOp43
 70
     1
102
RTVSPropertyOp44
 70
     1
102
RTVSPropertyOp45
 70
     1
102
RTVSPropertyOp46
 70
     1
102
RTVSPropertyOp47
 70
     1
102
RTVSPropertyOp48
 70
     1
102
RTVSPropertyOp49
 70
     1
102
RTVSPropertyOp50
 70
     1
102
RTVSPropertyOp51
 70
     0
102
RTVSPropertyOp52
 70
     0
102
RTVSPropertyOp53
 70
     1
102
RTVSPropertyOp54
 70
     1
102
RTVSPropertyOp55
 70
     1
102
RTVSPropertyOp56
 70
     1
102
RTVSPropertyOp57
 70
     1
102
RTVSPropertyOp58
 70
     1
102
RTVSPropertyOp59
 70
     1
102
RTVSPropertyOp60
 70
     1
102
RTVSPropertyOp61
 70
     1
102
RTVSPropertyOp62
 70
     1
  0
XRECORD
  5
4EB
102
{ACAD_REACTORS
330
4EA
102
}
330
4EA
100
AcDbXrecord
280
     1
102
RTVSPost2010Prop28
280
     0
102
RTVSPost2010PropOp28
 70
     1
102
RTVSPost2010Prop29
280
     1
102
RTVSPost2010PropOp29
 70
     1
102
RTVSPost2010Prop30
280
     1
102
RTVSPost2010PropOp30
 70
     1
102
RTVSPost2010Prop31
280
     0
102
RTVSPost2010PropOp31
 70
     1
102
RTVSPost2010Prop32
280
     0
102
RTVSPost2010PropOp32
 70
     1
102
RTVSPost2010Prop33
280
     0
102
RTVSPost2010PropOp33
 70
     1
102
RTVSPost2010Prop34
280
     0
102
RTVSPost2010PropOp34
 70
     1
102
RTVSPost2010Prop35
280
     0
102
RTVSPost2010PropOp35
 70
     1
102
RTVSPost2010Prop36
280
     0
102
RTVSPost2010PropOp36
 70
     1
102
RTVSPost2010Prop37
 90
       50
102
RTVSPost2010PropOp37
 70
     1
102
RTVSPost2010Prop38
140
0.0
102
RTVSPost2010PropOp38
 70
     1
102
RTVSPost2010Prop39
140
1.0
102
RTVSPost2010PropOp39
 70
     1
102
RTVSPost2010Prop40
 90
        0
102
RTVSPost2010PropOp40
 70
     1
102
RTVSPost2010Prop41ColorIndex
 90
       18
102
RTVSPost2010Prop41ColorRGB
 90
        0
102
RTVSPost2010PropOp41
 70
     1
102
RTVSPost2010Prop42
 90
       50
102
RTVSPost2010PropOp42
 70
     1
102
RTVSPost2010Prop43
 90
        3
102
RTVSPost2010PropOp43
 70
     1
102
RTVSPost2010Prop44ColorIndex
 90
        5
102
RTVSPost2010Prop44ColorRGB
 90
      255
102
RTVSPost2010PropOp44
 70
     1
102
RTVSPost2010Prop45
280
     0
102
RTVSPost2010PropOp45
 70
     1
102
RTVSPost2010Prop46
 90
       50
102
RTVSPost2010PropOp46
 70
     1
102
RTVSPost2010Prop47
 90
       50
102
RTVSPost2010PropOp47
 70
     1
102
RTVSPost2010Prop48
 90
       50
102
RTVSPost2010PropOp48
 70
     1
102
RTVSPost2010Prop49
280
     0
102
RTVSPost2010PropOp49
 70
     1
102
RTVSPost2010Prop50
 90
       50
102
RTVSPost2010PropOp50
 70
     1
102
RTVSPost2010Prop51ColorIndex
 90
      256
102
RTVSPost2010Prop51ColorRGB
 90
-16777216
102
RTVSPost2010PropOp51
 70
     0
102
RTVSPost2010Prop52
140
1.0
102
RTVSPost2010PropOp52
 70
     0
102
RTVSPost2010Prop53
 90
        2
102
RTVSPost2010PropOp53
 70
     1
102
RTVSPost2010Prop54
  1
strokes_ogs.tif
102
RTVSPost2010PropOp54
 70
     1
102
RTVSPost2010Prop55
280
     0
102
RTVSPost2010PropOp55
 70
     1
102
RTVSPost2010Prop56
140
1.0
102
RTVSPost2010PropOp56
 70
     1
102
RTVSPost2010Prop57
140
1.0
102
RTVSPost2010PropOp57
 70
     1
102
RTVSPropertyOp0
 70
     1
102
RTVSPropertyOp1
 70
     1
102
RTVSPropertyOp2
 70
     1
102
RTVSPropertyOp3
 70
     1
102
RTVSPropertyOp4
 70
     1
102
RTVSPropertyOp5
 70
     1
102
RTVSPropertyOp6
 70
     1
102
RTVSPropertyOp7
 70
     1
102
RTVSPropertyOp8
 70
     1
102
RTVSPropertyOp9
 70
     1
102
RTVSPropertyOp10
 70
     1
102
RTVSPropertyOp11
 70
     1
102
RTVSPropertyOp12
 70
     1
102
RTVSPropertyOp13
 70
     1
102
RTVSPropertyOp14
 70
     1
102
RTVSPropertyOp15
 70
     1
102
RTVSPropertyOp16
 70
     1
102
RTVSPropertyOp17
 70
     1
102
RTVSPropertyOp18
 70
     1
102
RTVSPropertyOp19
 70
     1
102
RTVSPropertyOp20
 70
     1
102
RTVSPropertyOp21
 70
     1
102
RTVSPropertyOp22
 70
     1
102
RTVSPropertyOp23
 70
     1
102
RTVSPropertyOp24
 70
     1
102
RTVSPropertyOp25
 70
     1
102
RTVSPropertyOp26
 70
     1
102
RTVSPropertyOp27
 70
     1
102
RTVSPropertyOp28
 70
     1
102
RTVSPropertyOp29
 70
     1
102
RTVSPropertyOp30
 70
     1
102
RTVSPropertyOp31
 70
     1
102
RTVSPropertyOp32
 70
     1
102
RTVSPropertyOp33
 70
     1
102
RTVSPropertyOp34
 70
     1
102
RTVSPropertyOp35
 70
     1
102
RTVSPropertyOp36
 70
     1
102
RTVSPropertyOp37
 70
     1
102
RTVSPropertyOp38
 70
     1
102
RTVSPropertyOp39
 70
     1
102
RTVSPropertyOp40
 70
     1
102
RTVSPropertyOp41
 70
     1
102
RTVSPropertyOp42
 70
     1
102
RTVSPropertyOp43
 70
     1
102
RTVSPropertyOp44
 70
     1
102
RTVSPropertyOp45
 70
     1
102
RTVSPropertyOp46
 70
     1
102
RTVSPropertyOp47
 70
     1
102
RTVSPropertyOp48
 70
     1
102
RTVSPropertyOp49
 70
     1
102
RTVSPropertyOp50
 70
     1
102
RTVSPropertyOp51
 70
     0
102
RTVSPropertyOp52
 70
     0
102
RTVSPropertyOp53
 70
     1
102
RTVSPropertyOp54
 70
     1
102
RTVSPropertyOp55
 70
     1
102
RTVSPropertyOp56
 70
     1
102
RTVSPropertyOp57
 70
     1
102
RTVSPropertyOp58
 70
     1
102
RTVSPropertyOp59
 70
     1
102
RTVSPropertyOp60
 70
     1
102
RTVSPropertyOp61
 70
     1
102
RTVSPropertyOp62
 70
     1
  0
XRECORD
  5
4ED
102
{ACAD_REACTORS
330
4EC
102
}
330
4EC
100
AcDbXrecord
280
     1
102
RTVSPost2010Prop28
280
     0
102
RTVSPost2010PropOp28
 70
     1
102
RTVSPost2010Prop29
280
     1
102
RTVSPost2010PropOp29
 70
     1
102
RTVSPost2010Prop30
280
     1
102
RTVSPost2010PropOp30
 70
     1
102
RTVSPost2010Prop31
280
     0
102
RTVSPost2010PropOp31
 70
     1
102
RTVSPost2010Prop32
280
     0
102
RTVSPost2010PropOp32
 70
     1
102
RTVSPost2010Prop33
280
     0
102
RTVSPost2010PropOp33
 70
     1
102
RTVSPost2010Prop34
280
     0
102
RTVSPost2010PropOp34
 70
     1
102
RTVSPost2010Prop35
280
     0
102
RTVSPost2010PropOp35
 70
     1
102
RTVSPost2010Prop36
280
     0
102
RTVSPost2010PropOp36
 70
     1
102
RTVSPost2010Prop37
 90
       50
102
RTVSPost2010PropOp37
 70
     1
102
RTVSPost2010Prop38
140
0.0
102
RTVSPost2010PropOp38
 70
     1
102
RTVSPost2010Prop39
140
1.0
102
RTVSPost2010PropOp39
 70
     1
102
RTVSPost2010Prop40
 90
        0
102
RTVSPost2010PropOp40
 70
     1
102
RTVSPost2010Prop41ColorIndex
 90
       18
102
RTVSPost2010Prop41ColorRGB
 90
        0
102
RTVSPost2010PropOp41
 70
     1
102
RTVSPost2010Prop42
 90
       50
102
RTVSPost2010PropOp42
 70
     1
102
RTVSPost2010Prop43
 90
        3
102
RTVSPost2010PropOp43
 70
     1
102
RTVSPost2010Prop44ColorIndex
 90
        5
102
RTVSPost2010Prop44ColorRGB
 90
      255
102
RTVSPost2010PropOp44
 70
     1
102
RTVSPost2010Prop45
280
     0
102
RTVSPost2010PropOp45
 70
     1
102
RTVSPost2010Prop46
 90
       50
102
RTVSPost2010PropOp46
 70
     1
102
RTVSPost2010Prop47
 90
       50
102
RTVSPost2010PropOp47
 70
     1
102
RTVSPost2010Prop48
 90
       50
102
RTVSPost2010PropOp48
 70
     1
102
RTVSPost2010Prop49
280
     0
102
RTVSPost2010PropOp49
 70
     1
102
RTVSPost2010Prop50
 90
       50
102
RTVSPost2010PropOp50
 70
     1
102
RTVSPost2010Prop51ColorIndex
 90
      256
102
RTVSPost2010Prop51ColorRGB
 90
-16777216
102
RTVSPost2010PropOp51
 70
     0
102
RTVSPost2010Prop52
140
1.0
102
RTVSPost2010PropOp52
 70
     0
102
RTVSPost2010Prop53
 90
        2
102
RTVSPost2010PropOp53
 70
     1
102
RTVSPost2010Prop54
  1
strokes_ogs.tif
102
RTVSPost2010PropOp54
 70
     1
102
RTVSPost2010Prop55
280
     0
102
RTVSPost2010PropOp55
 70
     1
102
RTVSPost2010Prop56
140
1.0
102
RTVSPost2010PropOp56
 70
     1
102
RTVSPost2010Prop57
140
1.0
102
RTVSPost2010PropOp57
 70
     1
102
RTVSPropertyOp0
 70
     1
102
RTVSPropertyOp1
 70
     1
102
RTVSPropertyOp2
 70
     1
102
RTVSPropertyOp3
 70
     1
102
RTVSPropertyOp4
 70
     1
102
RTVSPropertyOp5
 70
     1
102
RTVSPropertyOp6
 70
     1
102
RTVSPropertyOp7
 70
     1
102
RTVSPropertyOp8
 70
     1
102
RTVSPropertyOp9
 70
     1
102
RTVSPropertyOp10
 70
     1
102
RTVSPropertyOp11
 70
     1
102
RTVSPropertyOp12
 70
     1
102
RTVSPropertyOp13
 70
     1
102
RTVSPropertyOp14
 70
     1
102
RTVSPropertyOp15
 70
     1
102
RTVSPropertyOp16
 70
     1
102
RTVSPropertyOp17
 70
     1
102
RTVSPropertyOp18
 70
     1
102
RTVSPropertyOp19
 70
     1
102
RTVSPropertyOp20
 70
     1
102
RTVSPropertyOp21
 70
     1
102
RTVSPropertyOp22
 70
     1
102
RTVSPropertyOp23
 70
     1
102
RTVSPropertyOp24
 70
     1
102
RTVSPropertyOp25
 70
     1
102
RTVSPropertyOp26
 70
     1
102
RTVSPropertyOp27
 70
     1
102
RTVSPropertyOp28
 70
     1
102
RTVSPropertyOp29
 70
     1
102
RTVSPropertyOp30
 70
     1
102
RTVSPropertyOp31
 70
     1
102
RTVSPropertyOp32
 70
     1
102
RTVSPropertyOp33
 70
     1
102
RTVSPropertyOp34
 70
     1
102
RTVSPropertyOp35
 70
     1
102
RTVSPropertyOp36
 70
     1
102
RTVSPropertyOp37
 70
     1
102
RTVSPropertyOp38
 70
     1
102
RTVSPropertyOp39
 70
     1
102
RTVSPropertyOp40
 70
     1
102
RTVSPropertyOp41
 70
     1
102
RTVSPropertyOp42
 70
     1
102
RTVSPropertyOp43
 70
     1
102
RTVSPropertyOp44
 70
     1
102
RTVSPropertyOp45
 70
     1
102
RTVSPropertyOp46
 70
     1
102
RTVSPropertyOp47
 70
     1
102
RTVSPropertyOp48
 70
     1
102
RTVSPropertyOp49
 70
     1
102
RTVSPropertyOp50
 70
     1
102
RTVSPropertyOp51
 70
     0
102
RTVSPropertyOp52
 70
     0
102
RTVSPropertyOp53
 70
     1
102
RTVSPropertyOp54
 70
     1
102
RTVSPropertyOp55
 70
     1
102
RTVSPropertyOp56
 70
     1
102
RTVSPropertyOp57
 70
     1
102
RTVSPropertyOp58
 70
     1
102
RTVSPropertyOp59
 70
     1
102
RTVSPropertyOp60
 70
     1
102
RTVSPropertyOp61
 70
     1
102
RTVSPropertyOp62
 70
     1
  0
XRECORD
  5
4EF
102
{ACAD_REACTORS
330
4EE
102
}
330
4EE
100
AcDbXrecord
280
     1
102
RTVSPost2010Prop28
280
     0
102
RTVSPost2010PropOp28
 70
     1
102
RTVSPost2010Prop29
280
     1
102
RTVSPost2010PropOp29
 70
     1
102
RTVSPost2010Prop30
280
     1
102
RTVSPost2010PropOp30
 70
     1
102
RTVSPost2010Prop31
280
     0
102
RTVSPost2010PropOp31
 70
     1
102
RTVSPost2010Prop32
280
     0
102
RTVSPost2010PropOp32
 70
     1
102
RTVSPost2010Prop33
280
     0
102
RTVSPost2010PropOp33
 70
     1
102
RTVSPost2010Prop34
280
     0
102
RTVSPost2010PropOp34
 70
     1
102
RTVSPost2010Prop35
280
     0
102
RTVSPost2010PropOp35
 70
     1
102
RTVSPost2010Prop36
280
     0
102
RTVSPost2010PropOp36
 70
     1
102
RTVSPost2010Prop37
 90
       50
102
RTVSPost2010PropOp37
 70
     1
102
RTVSPost2010Prop38
140
0.0
102
RTVSPost2010PropOp38
 70
     1
102
RTVSPost2010Prop39
140
1.0
102
RTVSPost2010PropOp39
 70
     1
102
RTVSPost2010Prop40
 90
        0
102
RTVSPost2010PropOp40
 70
     1
102
RTVSPost2010Prop41ColorIndex
 90
       18
102
RTVSPost2010Prop41ColorRGB
 90
        0
102
RTVSPost2010PropOp41
 70
     1
102
RTVSPost2010Prop42
 90
       50
102
RTVSPost2010PropOp42
 70
     1
102
RTVSPost2010Prop43
 90
        3
102
RTVSPost2010PropOp43
 70
     1
102
RTVSPost2010Prop44ColorIndex
 90
        5
102
RTVSPost2010Prop44ColorRGB
 90
      255
102
RTVSPost2010PropOp44
 70
     1
102
RTVSPost2010Prop45
280
     0
102
RTVSPost2010PropOp45
 70
     1
102
RTVSPost2010Prop46
 90
       50
102
RTVSPost2010PropOp46
 70
     1
102
RTVSPost2010Prop47
 90
       50
102
RTVSPost2010PropOp47
 70
     1
102
RTVSPost2010Prop48
 90
       50
102
RTVSPost2010PropOp48
 70
     1
102
RTVSPost2010Prop49
280
     0
102
RTVSPost2010PropOp49
 70
     1
102
RTVSPost2010Prop50
 90
       50
102
RTVSPost2010PropOp50
 70
     1
102
RTVSPost2010Prop51ColorIndex
 90
      256
102
RTVSPost2010Prop51ColorRGB
 90
-16777216
102
RTVSPost2010PropOp51
 70
     0
102
RTVSPost2010Prop52
140
1.0
102
RTVSPost2010PropOp52
 70
     0
102
RTVSPost2010Prop53
 90
        2
102
RTVSPost2010PropOp53
 70
     1
102
RTVSPost2010Prop54
  1
strokes_ogs.tif
102
RTVSPost2010PropOp54
 70
     1
102
RTVSPost2010Prop55
280
     0
102
RTVSPost2010PropOp55
 70
     1
102
RTVSPost2010Prop56
140
1.0
102
RTVSPost2010PropOp56
 70
     1
102
RTVSPost2010Prop57
140
1.0
102
RTVSPost2010PropOp57
 70
     1
102
RTVSPropertyOp0
 70
     1
102
RTVSPropertyOp1
 70
     1
102
RTVSPropertyOp2
 70
     1
102
RTVSPropertyOp3
 70
     1
102
RTVSPropertyOp4
 70
     1
102
RTVSPropertyOp5
 70
     1
102
RTVSPropertyOp6
 70
     1
102
RTVSPropertyOp7
 70
     1
102
RTVSPropertyOp8
 70
     1
102
RTVSPropertyOp9
 70
     1
102
RTVSPropertyOp10
 70
     1
102
RTVSPropertyOp11
 70
     1
102
RTVSPropertyOp12
 70
     1
102
RTVSPropertyOp13
 70
     1
102
RTVSPropertyOp14
 70
     1
102
RTVSPropertyOp15
 70
     1
102
RTVSPropertyOp16
 70
     1
102
RTVSPropertyOp17
 70
     1
102
RTVSPropertyOp18
 70
     1
102
RTVSPropertyOp19
 70
     1
102
RTVSPropertyOp20
 70
     1
102
RTVSPropertyOp21
 70
     1
102
RTVSPropertyOp22
 70
     1
102
RTVSPropertyOp23
 70
     1
102
RTVSPropertyOp24
 70
     1
102
RTVSPropertyOp25
 70
     1
102
RTVSPropertyOp26
 70
     1
102
RTVSPropertyOp27
 70
     1
102
RTVSPropertyOp28
 70
     1
102
RTVSPropertyOp29
 70
     1
102
RTVSPropertyOp30
 70
     1
102
RTVSPropertyOp31
 70
     1
102
RTVSPropertyOp32
 70
     1
102
RTVSPropertyOp33
 70
     1
102
RTVSPropertyOp34
 70
     1
102
RTVSPropertyOp35
 70
     1
102
RTVSPropertyOp36
 70
     1
102
RTVSPropertyOp37
 70
     1
102
RTVSPropertyOp38
 70
     1
102
RTVSPropertyOp39
 70
     1
102
RTVSPropertyOp40
 70
     1
102
RTVSPropertyOp41
 70
     1
102
RTVSPropertyOp42
 70
     1
102
RTVSPropertyOp43
 70
     1
102
RTVSPropertyOp44
 70
     1
102
RTVSPropertyOp45
 70
     1
102
RTVSPropertyOp46
 70
     1
102
RTVSPropertyOp47
 70
     1
102
RTVSPropertyOp48
 70
     1
102
RTVSPropertyOp49
 70
     1
102
RTVSPropertyOp50
 70
     1
102
RTVSPropertyOp51
 70
     0
102
RTVSPropertyOp52
 70
     0
102
RTVSPropertyOp53
 70
     1
102
RTVSPropertyOp54
 70
     1
102
RTVSPropertyOp55
 70
     1
102
RTVSPropertyOp56
 70
     1
102
RTVSPropertyOp57
 70
     1
102
RTVSPropertyOp58
 70
     1
102
RTVSPropertyOp59
 70
     1
102
RTVSPropertyOp60
 70
     1
102
RTVSPropertyOp61
 70
     1
102
RTVSPropertyOp62
 70
     1
  0
XRECORD
  5
4F1
102
{ACAD_REACTORS
330
4F0
102
}
330
4F0
100
AcDbXrecord
280
     1
102
RTVSPost2010Prop28
280
     0
102
RTVSPost2010PropOp28
 70
     1
102
RTVSPost2010Prop29
280
     1
102
RTVSPost2010PropOp29
 70
     1
102
RTVSPost2010Prop30
280
     1
102
RTVSPost2010PropOp30
 70
     1
102
RTVSPost2010Prop31
280
     0
102
RTVSPost2010PropOp31
 70
     1
102
RTVSPost2010Prop32
280
     0
102
RTVSPost2010PropOp32
 70
     1
102
RTVSPost2010Prop33
280
     0
102
RTVSPost2010PropOp33
 70
     1
102
RTVSPost2010Prop34
280
     0
102
RTVSPost2010PropOp34
 70
     1
102
RTVSPost2010Prop35
280
     0
102
RTVSPost2010PropOp35
 70
     1
102
RTVSPost2010Prop36
280
     0
102
RTVSPost2010PropOp36
 70
     1
102
RTVSPost2010Prop37
 90
       50
102
RTVSPost2010PropOp37
 70
     1
102
RTVSPost2010Prop38
140
0.0
102
RTVSPost2010PropOp38
 70
     1
102
RTVSPost2010Prop39
140
1.0
102
RTVSPost2010PropOp39
 70
     1
102
RTVSPost2010Prop40
 90
        0
102
RTVSPost2010PropOp40
 70
     1
102
RTVSPost2010Prop41ColorIndex
 90
       18
102
RTVSPost2010Prop41ColorRGB
 90
        0
102
RTVSPost2010PropOp41
 70
     1
102
RTVSPost2010Prop42
 90
       50
102
RTVSPost2010PropOp42
 70
     1
102
RTVSPost2010Prop43
 90
        3
102
RTVSPost2010PropOp43
 70
     1
102
RTVSPost2010Prop44ColorIndex
 90
        5
102
RTVSPost2010Prop44ColorRGB
 90
      255
102
RTVSPost2010PropOp44
 70
     1
102
RTVSPost2010Prop45
280
     0
102
RTVSPost2010PropOp45
 70
     1
102
RTVSPost2010Prop46
 90
       50
102
RTVSPost2010PropOp46
 70
     1
102
RTVSPost2010Prop47
 90
       50
102
RTVSPost2010PropOp47
 70
     1
102
RTVSPost2010Prop48
 90
       50
102
RTVSPost2010PropOp48
 70
     1
102
RTVSPost2010Prop49
280
     0
102
RTVSPost2010PropOp49
 70
     1
102
RTVSPost2010Prop50
 90
       50
102
RTVSPost2010PropOp50
 70
     1
102
RTVSPost2010Prop51ColorIndex
 90
      256
102
RTVSPost2010Prop51ColorRGB
 90
-16777216
102
RTVSPost2010PropOp51
 70
     0
102
RTVSPost2010Prop52
140
1.0
102
RTVSPost2010PropOp52
 70
     0
102
RTVSPost2010Prop53
 90
        2
102
RTVSPost2010PropOp53
 70
     1
102
RTVSPost2010Prop54
  1
strokes_ogs.tif
102
RTVSPost2010PropOp54
 70
     1
102
RTVSPost2010Prop55
280
     0
102
RTVSPost2010PropOp55
 70
     1
102
RTVSPost2010Prop56
140
1.0
102
RTVSPost2010PropOp56
 70
     1
102
RTVSPost2010Prop57
140
1.0
102
RTVSPost2010PropOp57
 70
     1
102
RTVSPropertyOp0
 70
     1
102
RTVSPropertyOp1
 70
     1
102
RTVSPropertyOp2
 70
     1
102
RTVSPropertyOp3
 70
     1
102
RTVSPropertyOp4
 70
     1
102
RTVSPropertyOp5
 70
     1
102
RTVSPropertyOp6
 70
     1
102
RTVSPropertyOp7
 70
     1
102
RTVSPropertyOp8
 70
     1
102
RTVSPropertyOp9
 70
     1
102
RTVSPropertyOp10
 70
     1
102
RTVSPropertyOp11
 70
     1
102
RTVSPropertyOp12
 70
     1
102
RTVSPropertyOp13
 70
     1
102
RTVSPropertyOp14
 70
     1
102
RTVSPropertyOp15
 70
     1
102
RTVSPropertyOp16
 70
     1
102
RTVSPropertyOp17
 70
     1
102
RTVSPropertyOp18
 70
     1
102
RTVSPropertyOp19
 70
     1
102
RTVSPropertyOp20
 70
     1
102
RTVSPropertyOp21
 70
     1
102
RTVSPropertyOp22
 70
     1
102
RTVSPropertyOp23
 70
     1
102
RTVSPropertyOp24
 70
     1
102
RTVSPropertyOp25
 70
     1
102
RTVSPropertyOp26
 70
     1
102
RTVSPropertyOp27
 70
     1
102
RTVSPropertyOp28
 70
     1
102
RTVSPropertyOp29
 70
     1
102
RTVSPropertyOp30
 70
     1
102
RTVSPropertyOp31
 70
     1
102
RTVSPropertyOp32
 70
     1
102
RTVSPropertyOp33
 70
     1
102
RTVSPropertyOp34
 70
     1
102
RTVSPropertyOp35
 70
     1
102
RTVSPropertyOp36
 70
     1
102
RTVSPropertyOp37
 70
     1
102
RTVSPropertyOp38
 70
     1
102
RTVSPropertyOp39
 70
     1
102
RTVSPropertyOp40
 70
     1
102
RTVSPropertyOp41
 70
     1
102
RTVSPropertyOp42
 70
     1
102
RTVSPropertyOp43
 70
     1
102
RTVSPropertyOp44
 70
     1
102
RTVSPropertyOp45
 70
     1
102
RTVSPropertyOp46
 70
     1
102
RTVSPropertyOp47
 70
     1
102
RTVSPropertyOp48
 70
     1
102
RTVSPropertyOp49
 70
     1
102
RTVSPropertyOp50
 70
     1
102
RTVSPropertyOp51
 70
     0
102
RTVSPropertyOp52
 70
     0
102
RTVSPropertyOp53
 70
     1
102
RTVSPropertyOp54
 70
     1
102
RTVSPropertyOp55
 70
     1
102
RTVSPropertyOp56
 70
     1
102
RTVSPropertyOp57
 70
     1
102
RTVSPropertyOp58
 70
     1
102
RTVSPropertyOp59
 70
     1
102
RTVSPropertyOp60
 70
     1
102
RTVSPropertyOp61
 70
     1
102
RTVSPropertyOp62
 70
     1
  0
XRECORD
  5
4F7
102
{ACAD_REACTORS
330
4F6
102
}
330
4F6
100
AcDbXrecord
280
     1
102
RTVSPost2010Prop28
280
     0
102
RTVSPost2010PropOp28
 70
     1
102
RTVSPost2010Prop29
280
     1
102
RTVSPost2010PropOp29
 70
     1
102
RTVSPost2010Prop30
280
     1
102
RTVSPost2010PropOp30
 70
     1
102
RTVSPost2010Prop31
280
     0
102
RTVSPost2010PropOp31
 70
     1
102
RTVSPost2010Prop32
280
     0
102
RTVSPost2010PropOp32
 70
     1
102
RTVSPost2010Prop33
280
     0
102
RTVSPost2010PropOp33
 70
     1
102
RTVSPost2010Prop34
280
     0
102
RTVSPost2010PropOp34
 70
     1
102
RTVSPost2010Prop35
280
     0
102
RTVSPost2010PropOp35
 70
     1
102
RTVSPost2010Prop36
280
     0
102
RTVSPost2010PropOp36
 70
     1
102
RTVSPost2010Prop37
 90
       50
102
RTVSPost2010PropOp37
 70
     1
102
RTVSPost2010Prop38
140
0.0
102
RTVSPost2010PropOp38
 70
     1
102
RTVSPost2010Prop39
140
1.0
102
RTVSPost2010PropOp39
 70
     1
102
RTVSPost2010Prop40
 90
        0
102
RTVSPost2010PropOp40
 70
     1
102
RTVSPost2010Prop41ColorIndex
 90
       18
102
RTVSPost2010Prop41ColorRGB
 90
        0
102
RTVSPost2010PropOp41
 70
     1
102
RTVSPost2010Prop42
 90
       50
102
RTVSPost2010PropOp42
 70
     1
102
RTVSPost2010Prop43
 90
        3
102
RTVSPost2010PropOp43
 70
     1
102
RTVSPost2010Prop44ColorIndex
 90
        5
102
RTVSPost2010Prop44ColorRGB
 90
      255
102
RTVSPost2010PropOp44
 70
     1
102
RTVSPost2010Prop45
280
     0
102
RTVSPost2010PropOp45
 70
     1
102
RTVSPost2010Prop46
 90
       50
102
RTVSPost2010PropOp46
 70
     1
102
RTVSPost2010Prop47
 90
       50
102
RTVSPost2010PropOp47
 70
     1
102
RTVSPost2010Prop48
 90
       50
102
RTVSPost2010PropOp48
 70
     1
102
RTVSPost2010Prop49
280
     0
102
RTVSPost2010PropOp49
 70
     1
102
RTVSPost2010Prop50
 90
       50
102
RTVSPost2010PropOp50
 70
     1
102
RTVSPost2010Prop51ColorIndex
 90
      256
102
RTVSPost2010Prop51ColorRGB
 90
-16777216
102
RTVSPost2010PropOp51
 70
     0
102
RTVSPost2010Prop52
140
1.0
102
RTVSPost2010PropOp52
 70
     0
102
RTVSPost2010Prop53
 90
        2
102
RTVSPost2010PropOp53
 70
     1
102
RTVSPost2010Prop54
  1
strokes_ogs.tif
102
RTVSPost2010PropOp54
 70
     1
102
RTVSPost2010Prop55
280
     0
102
RTVSPost2010PropOp55
 70
     1
102
RTVSPost2010Prop56
140
1.0
102
RTVSPost2010PropOp56
 70
     1
102
RTVSPost2010Prop57
140
1.0
102
RTVSPost2010PropOp57
 70
     1
102
RTVSPropertyOp0
 70
     1
102
RTVSPropertyOp1
 70
     1
102
RTVSPropertyOp2
 70
     1
102
RTVSPropertyOp3
 70
     1
102
RTVSPropertyOp4
 70
     1
102
RTVSPropertyOp5
 70
     1
102
RTVSPropertyOp6
 70
     1
102
RTVSPropertyOp7
 70
     1
102
RTVSPropertyOp8
 70
     1
102
RTVSPropertyOp9
 70
     1
102
RTVSPropertyOp10
 70
     1
102
RTVSPropertyOp11
 70
     1
102
RTVSPropertyOp12
 70
     1
102
RTVSPropertyOp13
 70
     1
102
RTVSPropertyOp14
 70
     1
102
RTVSPropertyOp15
 70
     1
102
RTVSPropertyOp16
 70
     1
102
RTVSPropertyOp17
 70
     1
102
RTVSPropertyOp18
 70
     1
102
RTVSPropertyOp19
 70
     1
102
RTVSPropertyOp20
 70
     1
102
RTVSPropertyOp21
 70
     1
102
RTVSPropertyOp22
 70
     1
102
RTVSPropertyOp23
 70
     1
102
RTVSPropertyOp24
 70
     1
102
RTVSPropertyOp25
 70
     1
102
RTVSPropertyOp26
 70
     1
102
RTVSPropertyOp27
 70
     1
102
RTVSPropertyOp28
 70
     1
102
RTVSPropertyOp29
 70
     1
102
RTVSPropertyOp30
 70
     1
102
RTVSPropertyOp31
 70
     1
102
RTVSPropertyOp32
 70
     1
102
RTVSPropertyOp33
 70
     1
102
RTVSPropertyOp34
 70
     1
102
RTVSPropertyOp35
 70
     1
102
RTVSPropertyOp36
 70
     1
102
RTVSPropertyOp37
 70
     1
102
RTVSPropertyOp38
 70
     1
102
RTVSPropertyOp39
 70
     1
102
RTVSPropertyOp40
 70
     1
102
RTVSPropertyOp41
 70
     1
102
RTVSPropertyOp42
 70
     1
102
RTVSPropertyOp43
 70
     1
102
RTVSPropertyOp44
 70
     1
102
RTVSPropertyOp45
 70
     1
102
RTVSPropertyOp46
 70
     1
102
RTVSPropertyOp47
 70
     1
102
RTVSPropertyOp48
 70
     1
102
RTVSPropertyOp49
 70
     1
102
RTVSPropertyOp50
 70
     1
102
RTVSPropertyOp51
 70
     0
102
RTVSPropertyOp52
 70
     0
102
RTVSPropertyOp53
 70
     1
102
RTVSPropertyOp54
 70
     1
102
RTVSPropertyOp55
 70
     1
102
RTVSPropertyOp56
 70
     1
102
RTVSPropertyOp57
 70
     1
102
RTVSPropertyOp58
 70
     1
102
RTVSPropertyOp59
 70
     1
102
RTVSPropertyOp60
 70
     1
102
RTVSPropertyOp61
 70
     1
102
RTVSPropertyOp62
 70
     1
  0
XRECORD
  5
50B
102
{ACAD_REACTORS
330
50A
102
}
330
50A
100
AcDbXrecord
280
     1
102
RTVSPost2010Prop28
280
     0
102
RTVSPost2010PropOp28
 70
     1
102
RTVSPost2010Prop29
280
     1
102
RTVSPost2010PropOp29
 70
     1
102
RTVSPost2010Prop30
280
     1
102
RTVSPost2010PropOp30
 70
     1
102
RTVSPost2010Prop31
280
     0
102
RTVSPost2010PropOp31
 70
     1
102
RTVSPost2010Prop32
280
     0
102
RTVSPost2010PropOp32
 70
     1
102
RTVSPost2010Prop33
280
     0
102
RTVSPost2010PropOp33
 70
     1
102
RTVSPost2010Prop34
280
     0
102
RTVSPost2010PropOp34
 70
     1
102
RTVSPost2010Prop35
280
     0
102
RTVSPost2010PropOp35
 70
     1
102
RTVSPost2010Prop36
280
     0
102
RTVSPost2010PropOp36
 70
     1
102
RTVSPost2010Prop37
 90
       50
102
RTVSPost2010PropOp37
 70
     1
102
RTVSPost2010Prop38
140
0.0
102
RTVSPost2010PropOp38
 70
     1
102
RTVSPost2010Prop39
140
1.0
102
RTVSPost2010PropOp39
 70
     1
102
RTVSPost2010Prop40
 90
        0
102
RTVSPost2010PropOp40
 70
     1
102
RTVSPost2010Prop41ColorIndex
 90
       18
102
RTVSPost2010Prop41ColorRGB
 90
        0
102
RTVSPost2010PropOp41
 70
     1
102
RTVSPost2010Prop42
 90
       50
102
RTVSPost2010PropOp42
 70
     1
102
RTVSPost2010Prop43
 90
        3
102
RTVSPost2010PropOp43
 70
     1
102
RTVSPost2010Prop44ColorIndex
 90
        5
102
RTVSPost2010Prop44ColorRGB
 90
      255
102
RTVSPost2010PropOp44
 70
     1
102
RTVSPost2010Prop45
280
     0
102
RTVSPost2010PropOp45
 70
     1
102
RTVSPost2010Prop46
 90
       50
102
RTVSPost2010PropOp46
 70
     1
102
RTVSPost2010Prop47
 90
       50
102
RTVSPost2010PropOp47
 70
     1
102
RTVSPost2010Prop48
 90
       50
102
RTVSPost2010PropOp48
 70
     1
102
RTVSPost2010Prop49
280
     0
102
RTVSPost2010PropOp49
 70
     1
102
RTVSPost2010Prop50
 90
       50
102
RTVSPost2010PropOp50
 70
     1
102
RTVSPost2010Prop51ColorIndex
 90
      256
102
RTVSPost2010Prop51ColorRGB
 90
-16777216
102
RTVSPost2010PropOp51
 70
     0
102
RTVSPost2010Prop52
140
1.0
102
RTVSPost2010PropOp52
 70
     0
102
RTVSPost2010Prop53
 90
        2
102
RTVSPost2010PropOp53
 70
     1
102
RTVSPost2010Prop54
  1
strokes_ogs.tif
102
RTVSPost2010PropOp54
 70
     1
102
RTVSPost2010Prop55
280
     0
102
RTVSPost2010PropOp55
 70
     1
102
RTVSPost2010Prop56
140
1.0
102
RTVSPost2010PropOp56
 70
     1
102
RTVSPost2010Prop57
140
1.0
102
RTVSPost2010PropOp57
 70
     1
102
RTVSPropertyOp0
 70
     0
102
RTVSPropertyOp1
 70
     0
102
RTVSPropertyOp2
 70
     0
102
RTVSPropertyOp3
 70
     0
102
RTVSPropertyOp4
 70
     0
102
RTVSPropertyOp5
 70
     0
102
RTVSPropertyOp6
 70
     0
102
RTVSPropertyOp7
 70
     0
102
RTVSPropertyOp8
 70
     0
102
RTVSPropertyOp9
 70
     0
102
RTVSPropertyOp10
 70
     0
102
RTVSPropertyOp11
 70
     0
102
RTVSPropertyOp12
 70
     0
102
RTVSPropertyOp13
 70
     0
102
RTVSPropertyOp14
 70
     0
102
RTVSPropertyOp15
 70
     0
102
RTVSPropertyOp16
 70
     0
102
RTVSPropertyOp17
 70
     0
102
RTVSPropertyOp18
 70
     0
102
RTVSPropertyOp19
 70
     0
102
RTVSPropertyOp20
 70
     0
102
RTVSPropertyOp21
 70
     0
102
RTVSPropertyOp22
 70
     0
102
RTVSPropertyOp23
 70
     0
102
RTVSPropertyOp24
 70
     0
102
RTVSPropertyOp25
 70
     0
102
RTVSPropertyOp26
 70
     0
102
RTVSPropertyOp27
 70
     0
102
RTVSPropertyOp28
 70
     1
102
RTVSPropertyOp29
 70
     1
102
RTVSPropertyOp30
 70
     1
102
RTVSPropertyOp31
 70
     1
102
RTVSPropertyOp32
 70
     1
102
RTVSPropertyOp33
 70
     1
102
RTVSPropertyOp34
 70
     1
102
RTVSPropertyOp35
 70
     1
102
RTVSPropertyOp36
 70
     1
102
RTVSPropertyOp37
 70
     1
102
RTVSPropertyOp38
 70
     1
102
RTVSPropertyOp39
 70
     1
102
RTVSPropertyOp40
 70
     1
102
RTVSPropertyOp41
 70
     1
102
RTVSPropertyOp42
 70
     1
102
RTVSPropertyOp43
 70
     1
102
RTVSPropertyOp44
 70
     1
102
RTVSPropertyOp45
 70
     1
102
RTVSPropertyOp46
 70
     1
102
RTVSPropertyOp47
 70
     1
102
RTVSPropertyOp48
 70
     1
102
RTVSPropertyOp49
 70
     1
102
RTVSPropertyOp50
 70
     1
102
RTVSPropertyOp51
 70
     0
102
RTVSPropertyOp52
 70
     0
102
RTVSPropertyOp53
 70
     1
102
RTVSPropertyOp54
 70
     1
102
RTVSPropertyOp55
 70
     1
102
RTVSPropertyOp56
 70
     1
102
RTVSPropertyOp57
 70
     1
102
RTVSPropertyOp58
 70
     1
102
RTVSPropertyOp59
 70
     1
102
RTVSPropertyOp60
 70
     1
102
RTVSPropertyOp61
 70
     1
102
RTVSPropertyOp62
 70
     1
  0
XRECORD
  5
505
102
{ACAD_REACTORS
330
504
102
}
330
504
100
AcDbXrecord
280
     1
102
RTVSPost2010Prop28
280
     0
102
RTVSPost2010PropOp28
 70
     1
102
RTVSPost2010Prop29
280
     1
102
RTVSPost2010PropOp29
 70
     1
102
RTVSPost2010Prop30
280
     1
102
RTVSPost2010PropOp30
 70
     1
102
RTVSPost2010Prop31
280
     0
102
RTVSPost2010PropOp31
 70
     1
102
RTVSPost2010Prop32
280
     0
102
RTVSPost2010PropOp32
 70
     1
102
RTVSPost2010Prop33
280
     0
102
RTVSPost2010PropOp33
 70
     1
102
RTVSPost2010Prop34
280
     0
102
RTVSPost2010PropOp34
 70
     1
102
RTVSPost2010Prop35
280
     0
102
RTVSPost2010PropOp35
 70
     1
102
RTVSPost2010Prop36
280
     0
102
RTVSPost2010PropOp36
 70
     1
102
RTVSPost2010Prop37
 90
       50
102
RTVSPost2010PropOp37
 70
     1
102
RTVSPost2010Prop38
140
0.0
102
RTVSPost2010PropOp38
 70
     1
102
RTVSPost2010Prop39
140
1.0
102
RTVSPost2010PropOp39
 70
     1
102
RTVSPost2010Prop40
 90
        0
102
RTVSPost2010PropOp40
 70
     1
102
RTVSPost2010Prop41ColorIndex
 90
       18
102
RTVSPost2010Prop41ColorRGB
 90
        0
102
RTVSPost2010PropOp41
 70
     1
102
RTVSPost2010Prop42
 90
       50
102
RTVSPost2010PropOp42
 70
     1
102
RTVSPost2010Prop43
 90
        3
102
RTVSPost2010PropOp43
 70
     1
102
RTVSPost2010Prop44ColorIndex
 90
        5
102
RTVSPost2010Prop44ColorRGB
 90
      255
102
RTVSPost2010PropOp44
 70
     1
102
RTVSPost2010Prop45
280
     0
102
RTVSPost2010PropOp45
 70
     1
102
RTVSPost2010Prop46
 90
       50
102
RTVSPost2010PropOp46
 70
     1
102
RTVSPost2010Prop47
 90
       50
102
RTVSPost2010PropOp47
 70
     1
102
RTVSPost2010Prop48
 90
       50
102
RTVSPost2010PropOp48
 70
     1
102
RTVSPost2010Prop49
280
     0
102
RTVSPost2010PropOp49
 70
     1
102
RTVSPost2010Prop50
 90
       50
102
RTVSPost2010PropOp50
 70
     1
102
RTVSPost2010Prop51ColorIndex
 90
      256
102
RTVSPost2010Prop51ColorRGB
 90
-16777216
102
RTVSPost2010PropOp51
 70
     0
102
RTVSPost2010Prop52
140
1.0
102
RTVSPost2010PropOp52
 70
     0
102
RTVSPost2010Prop53
 90
        2
102
RTVSPost2010PropOp53
 70
     1
102
RTVSPost2010Prop54
  1
strokes_ogs.tif
102
RTVSPost2010PropOp54
 70
     1
102
RTVSPost2010Prop55
280
     0
102
RTVSPost2010PropOp55
 70
     1
102
RTVSPost2010Prop56
140
1.0
102
RTVSPost2010PropOp56
 70
     1
102
RTVSPost2010Prop57
140
1.0
102
RTVSPost2010PropOp57
 70
     1
102
RTVSPropertyOp0
 70
     1
102
RTVSPropertyOp1
 70
     1
102
RTVSPropertyOp2
 70
     1
102
RTVSPropertyOp3
 70
     1
102
RTVSPropertyOp4
 70
     1
102
RTVSPropertyOp5
 70
     1
102
RTVSPropertyOp6
 70
     1
102
RTVSPropertyOp7
 70
     1
102
RTVSPropertyOp8
 70
     1
102
RTVSPropertyOp9
 70
     1
102
RTVSPropertyOp10
 70
     1
102
RTVSPropertyOp11
 70
     1
102
RTVSPropertyOp12
 70
     1
102
RTVSPropertyOp13
 70
     1
102
RTVSPropertyOp14
 70
     1
102
RTVSPropertyOp15
 70
     1
102
RTVSPropertyOp16
 70
     1
102
RTVSPropertyOp17
 70
     1
102
RTVSPropertyOp18
 70
     1
102
RTVSPropertyOp19
 70
     1
102
RTVSPropertyOp20
 70
     1
102
RTVSPropertyOp21
 70
     1
102
RTVSPropertyOp22
 70
     1
102
RTVSPropertyOp23
 70
     1
102
RTVSPropertyOp24
 70
     1
102
RTVSPropertyOp25
 70
     1
102
RTVSPropertyOp26
 70
     1
102
RTVSPropertyOp27
 70
     1
102
RTVSPropertyOp28
 70
     1
102
RTVSPropertyOp29
 70
     1
102
RTVSPropertyOp30
 70
     1
102
RTVSPropertyOp31
 70
     1
102
RTVSPropertyOp32
 70
     1
102
RTVSPropertyOp33
 70
     1
102
RTVSPropertyOp34
 70
     1
102
RTVSPropertyOp35
 70
     1
102
RTVSPropertyOp36
 70
     1
102
RTVSPropertyOp37
 70
     1
102
RTVSPropertyOp38
 70
     1
102
RTVSPropertyOp39
 70
     1
102
RTVSPropertyOp40
 70
     1
102
RTVSPropertyOp41
 70
     1
102
RTVSPropertyOp42
 70
     1
102
RTVSPropertyOp43
 70
     1
102
RTVSPropertyOp44
 70
     1
102
RTVSPropertyOp45
 70
     1
102
RTVSPropertyOp46
 70
     1
102
RTVSPropertyOp47
 70
     1
102
RTVSPropertyOp48
 70
     1
102
RTVSPropertyOp49
 70
     1
102
RTVSPropertyOp50
 70
     1
102
RTVSPropertyOp51
 70
     0
102
RTVSPropertyOp52
 70
     0
102
RTVSPropertyOp53
 70
     1
102
RTVSPropertyOp54
 70
     1
102
RTVSPropertyOp55
 70
     1
102
RTVSPropertyOp56
 70
     1
102
RTVSPropertyOp57
 70
     1
102
RTVSPropertyOp58
 70
     1
102
RTVSPropertyOp59
 70
     1
102
RTVSPropertyOp60
 70
     1
102
RTVSPropertyOp61
 70
     1
102
RTVSPropertyOp62
 70
     1
  0
XRECORD
  5
50D
102
{ACAD_REACTORS
330
50C
102
}
330
50C
100
AcDbXrecord
280
     1
102
RTVSPost2010Prop28
280
     0
102
RTVSPost2010PropOp28
 70
     1
102
RTVSPost2010Prop29
280
     1
102
RTVSPost2010PropOp29
 70
     1
102
RTVSPost2010Prop30
280
     1
102
RTVSPost2010PropOp30
 70
     1
102
RTVSPost2010Prop31
280
     0
102
RTVSPost2010PropOp31
 70
     1
102
RTVSPost2010Prop32
280
     0
102
RTVSPost2010PropOp32
 70
     1
102
RTVSPost2010Prop33
280
     0
102
RTVSPost2010PropOp33
 70
     1
102
RTVSPost2010Prop34
280
     0
102
RTVSPost2010PropOp34
 70
     1
102
RTVSPost2010Prop35
280
     0
102
RTVSPost2010PropOp35
 70
     1
102
RTVSPost2010Prop36
280
     0
102
RTVSPost2010PropOp36
 70
     1
102
RTVSPost2010Prop37
 90
       50
102
RTVSPost2010PropOp37
 70
     1
102
RTVSPost2010Prop38
140
0.0
102
RTVSPost2010PropOp38
 70
     1
102
RTVSPost2010Prop39
140
1.0
102
RTVSPost2010PropOp39
 70
     1
102
RTVSPost2010Prop40
 90
        0
102
RTVSPost2010PropOp40
 70
     1
102
RTVSPost2010Prop41ColorIndex
 90
       18
102
RTVSPost2010Prop41ColorRGB
 90
        0
102
RTVSPost2010PropOp41
 70
     1
102
RTVSPost2010Prop42
 90
       50
102
RTVSPost2010PropOp42
 70
     1
102
RTVSPost2010Prop43
 90
        3
102
RTVSPost2010PropOp43
 70
     1
102
RTVSPost2010Prop44ColorIndex
 90
        5
102
RTVSPost2010Prop44ColorRGB
 90
      255
102
RTVSPost2010PropOp44
 70
     1
102
RTVSPost2010Prop45
280
     0
102
RTVSPost2010PropOp45
 70
     1
102
RTVSPost2010Prop46
 90
       50
102
RTVSPost2010PropOp46
 70
     1
102
RTVSPost2010Prop47
 90
       50
102
RTVSPost2010PropOp47
 70
     1
102
RTVSPost2010Prop48
 90
       50
102
RTVSPost2010PropOp48
 70
     1
102
RTVSPost2010Prop49
280
     0
102
RTVSPost2010PropOp49
 70
     1
102
RTVSPost2010Prop50
 90
       50
102
RTVSPost2010PropOp50
 70
     1
102
RTVSPost2010Prop51ColorIndex
 90
      256
102
RTVSPost2010Prop51ColorRGB
 90
-16777216
102
RTVSPost2010PropOp51
 70
     0
102
RTVSPost2010Prop52
140
1.0
102
RTVSPost2010PropOp52
 70
     0
102
RTVSPost2010Prop53
 90
        2
102
RTVSPost2010PropOp53
 70
     1
102
RTVSPost2010Prop54
  1
strokes_ogs.tif
102
RTVSPost2010PropOp54
 70
     1
102
RTVSPost2010Prop55
280
     0
102
RTVSPost2010PropOp55
 70
     1
102
RTVSPost2010Prop56
140
1.0
102
RTVSPost2010PropOp56
 70
     1
102
RTVSPost2010Prop57
140
1.0
102
RTVSPost2010PropOp57
 70
     1
102
RTVSPropertyOp0
 70
     0
102
RTVSPropertyOp1
 70
     0
102
RTVSPropertyOp2
 70
     0
102
RTVSPropertyOp3
 70
     0
102
RTVSPropertyOp4
 70
     0
102
RTVSPropertyOp5
 70
     0
102
RTVSPropertyOp6
 70
     0
102
RTVSPropertyOp7
 70
     0
102
RTVSPropertyOp8
 70
     0
102
RTVSPropertyOp9
 70
     0
102
RTVSPropertyOp10
 70
     0
102
RTVSPropertyOp11
 70
     0
102
RTVSPropertyOp12
 70
     0
102
RTVSPropertyOp13
 70
     0
102
RTVSPropertyOp14
 70
     0
102
RTVSPropertyOp15
 70
     0
102
RTVSPropertyOp16
 70
     0
102
RTVSPropertyOp17
 70
     0
102
RTVSPropertyOp18
 70
     0
102
RTVSPropertyOp19
 70
     0
102
RTVSPropertyOp20
 70
     0
102
RTVSPropertyOp21
 70
     0
102
RTVSPropertyOp22
 70
     0
102
RTVSPropertyOp23
 70
     0
102
RTVSPropertyOp24
 70
     0
102
RTVSPropertyOp25
 70
     0
102
RTVSPropertyOp26
 70
     0
102
RTVSPropertyOp27
 70
     0
102
RTVSPropertyOp28
 70
     1
102
RTVSPropertyOp29
 70
     1
102
RTVSPropertyOp30
 70
     1
102
RTVSPropertyOp31
 70
     1
102
RTVSPropertyOp32
 70
     1
102
RTVSPropertyOp33
 70
     1
102
RTVSPropertyOp34
 70
     1
102
RTVSPropertyOp35
 70
     1
102
RTVSPropertyOp36
 70
     1
102
RTVSPropertyOp37
 70
     1
102
RTVSPropertyOp38
 70
     1
102
RTVSPropertyOp39
 70
     1
102
RTVSPropertyOp40
 70
     1
102
RTVSPropertyOp41
 70
     1
102
RTVSPropertyOp42
 70
     1
102
RTVSPropertyOp43
 70
     1
102
RTVSPropertyOp44
 70
     1
102
RTVSPropertyOp45
 70
     1
102
RTVSPropertyOp46
 70
     1
102
RTVSPropertyOp47
 70
     1
102
RTVSPropertyOp48
 70
     1
102
RTVSPropertyOp49
 70
     1
102
RTVSPropertyOp50
 70
     1
102
RTVSPropertyOp51
 70
     0
102
RTVSPropertyOp52
 70
     0
102
RTVSPropertyOp53
 70
     1
102
RTVSPropertyOp54
 70
     1
102
RTVSPropertyOp55
 70
     1
102
RTVSPropertyOp56
 70
     1
102
RTVSPropertyOp57
 70
     1
102
RTVSPropertyOp58
 70
     1
102
RTVSPropertyOp59
 70
     1
102
RTVSPropertyOp60
 70
     1
102
RTVSPropertyOp61
 70
     1
102
RTVSPropertyOp62
 70
     1
  0
XRECORD
  5
4FB
102
{ACAD_REACTORS
330
4FA
102
}
330
4FA
100
AcDbXrecord
280
     1
102
RTVSPost2010Prop28
280
     0
102
RTVSPost2010PropOp28
 70
     1
102
RTVSPost2010Prop29
280
     1
102
RTVSPost2010PropOp29
 70
     1
102
RTVSPost2010Prop30
280
     1
102
RTVSPost2010PropOp30
 70
     1
102
RTVSPost2010Prop31
280
     0
102
RTVSPost2010PropOp31
 70
     1
102
RTVSPost2010Prop32
280
     0
102
RTVSPost2010PropOp32
 70
     1
102
RTVSPost2010Prop33
280
     0
102
RTVSPost2010PropOp33
 70
     1
102
RTVSPost2010Prop34
280
     0
102
RTVSPost2010PropOp34
 70
     1
102
RTVSPost2010Prop35
280
     0
102
RTVSPost2010PropOp35
 70
     1
102
RTVSPost2010Prop36
280
     0
102
RTVSPost2010PropOp36
 70
     1
102
RTVSPost2010Prop37
 90
       50
102
RTVSPost2010PropOp37
 70
     1
102
RTVSPost2010Prop38
140
0.0
102
RTVSPost2010PropOp38
 70
     1
102
RTVSPost2010Prop39
140
1.0
102
RTVSPost2010PropOp39
 70
     1
102
RTVSPost2010Prop40
 90
        0
102
RTVSPost2010PropOp40
 70
     1
102
RTVSPost2010Prop41ColorIndex
 90
       18
102
RTVSPost2010Prop41ColorRGB
 90
        0
102
RTVSPost2010PropOp41
 70
     1
102
RTVSPost2010Prop42
 90
       50
102
RTVSPost2010PropOp42
 70
     1
102
RTVSPost2010Prop43
 90
        3
102
RTVSPost2010PropOp43
 70
     1
102
RTVSPost2010Prop44ColorIndex
 90
        5
102
RTVSPost2010Prop44ColorRGB
 90
      255
102
RTVSPost2010PropOp44
 70
     1
102
RTVSPost2010Prop45
280
     0
102
RTVSPost2010PropOp45
 70
     1
102
RTVSPost2010Prop46
 90
       50
102
RTVSPost2010PropOp46
 70
     1
102
RTVSPost2010Prop47
 90
       50
102
RTVSPost2010PropOp47
 70
     1
102
RTVSPost2010Prop48
 90
       50
102
RTVSPost2010PropOp48
 70
     1
102
RTVSPost2010Prop49
280
     0
102
RTVSPost2010PropOp49
 70
     1
102
RTVSPost2010Prop50
 90
       50
102
RTVSPost2010PropOp50
 70
     1
102
RTVSPost2010Prop51ColorIndex
 90
      256
102
RTVSPost2010Prop51ColorRGB
 90
-16777216
102
RTVSPost2010PropOp51
 70
     0
102
RTVSPost2010Prop52
140
1.0
102
RTVSPost2010PropOp52
 70
     0
102
RTVSPost2010Prop53
 90
        2
102
RTVSPost2010PropOp53
 70
     1
102
RTVSPost2010Prop54
  1
strokes_ogs.tif
102
RTVSPost2010PropOp54
 70
     1
102
RTVSPost2010Prop55
280
     0
102
RTVSPost2010PropOp55
 70
     1
102
RTVSPost2010Prop56
140
1.0
102
RTVSPost2010PropOp56
 70
     1
102
RTVSPost2010Prop57
140
1.0
102
RTVSPost2010PropOp57
 70
     1
102
RTVSPropertyOp0
 70
     1
102
RTVSPropertyOp1
 70
     1
102
RTVSPropertyOp2
 70
     1
102
RTVSPropertyOp3
 70
     1
102
RTVSPropertyOp4
 70
     1
102
RTVSPropertyOp5
 70
     1
102
RTVSPropertyOp6
 70
     1
102
RTVSPropertyOp7
 70
     1
102
RTVSPropertyOp8
 70
     1
102
RTVSPropertyOp9
 70
     1
102
RTVSPropertyOp10
 70
     1
102
RTVSPropertyOp11
 70
     1
102
RTVSPropertyOp12
 70
     1
102
RTVSPropertyOp13
 70
     1
102
RTVSPropertyOp14
 70
     1
102
RTVSPropertyOp15
 70
     1
102
RTVSPropertyOp16
 70
     1
102
RTVSPropertyOp17
 70
     1
102
RTVSPropertyOp18
 70
     1
102
RTVSPropertyOp19
 70
     1
102
RTVSPropertyOp20
 70
     1
102
RTVSPropertyOp21
 70
     1
102
RTVSPropertyOp22
 70
     1
102
RTVSPropertyOp23
 70
     1
102
RTVSPropertyOp24
 70
     1
102
RTVSPropertyOp25
 70
     1
102
RTVSPropertyOp26
 70
     1
102
RTVSPropertyOp27
 70
     1
102
RTVSPropertyOp28
 70
     1
102
RTVSPropertyOp29
 70
     1
102
RTVSPropertyOp30
 70
     1
102
RTVSPropertyOp31
 70
     1
102
RTVSPropertyOp32
 70
     1
102
RTVSPropertyOp33
 70
     1
102
RTVSPropertyOp34
 70
     1
102
RTVSPropertyOp35
 70
     1
102
RTVSPropertyOp36
 70
     1
102
RTVSPropertyOp37
 70
     1
102
RTVSPropertyOp38
 70
     1
102
RTVSPropertyOp39
 70
     1
102
RTVSPropertyOp40
 70
     1
102
RTVSPropertyOp41
 70
     1
102
RTVSPropertyOp42
 70
     1
102
RTVSPropertyOp43
 70
     1
102
RTVSPropertyOp44
 70
     1
102
RTVSPropertyOp45
 70
     1
102
RTVSPropertyOp46
 70
     1
102
RTVSPropertyOp47
 70
     1
102
RTVSPropertyOp48
 70
     1
102
RTVSPropertyOp49
 70
     1
102
RTVSPropertyOp50
 70
     1
102
RTVSPropertyOp51
 70
     0
102
RTVSPropertyOp52
 70
     0
102
RTVSPropertyOp53
 70
     1
102
RTVSPropertyOp54
 70
     1
102
RTVSPropertyOp55
 70
     1
102
RTVSPropertyOp56
 70
     1
102
RTVSPropertyOp57
 70
     1
102
RTVSPropertyOp58
 70
     1
102
RTVSPropertyOp59
 70
     1
102
RTVSPropertyOp60
 70
     1
102
RTVSPropertyOp61
 70
     1
102
RTVSPropertyOp62
 70
     1
  0
XRECORD
  5
519
102
{ACAD_REACTORS
330
518
102
}
330
518
100
AcDbXrecord
280
     1
102
RTVSPost2010Prop28
280
     0
102
RTVSPost2010PropOp28
 70
     1
102
RTVSPost2010Prop29
280
     1
102
RTVSPost2010PropOp29
 70
     1
102
RTVSPost2010Prop30
280
     1
102
RTVSPost2010PropOp30
 70
     1
102
RTVSPost2010Prop31
280
     0
102
RTVSPost2010PropOp31
 70
     1
102
RTVSPost2010Prop32
280
     0
102
RTVSPost2010PropOp32
 70
     1
102
RTVSPost2010Prop33
280
     0
102
RTVSPost2010PropOp33
 70
     1
102
RTVSPost2010Prop34
280
     0
102
RTVSPost2010PropOp34
 70
     1
102
RTVSPost2010Prop35
280
     0
102
RTVSPost2010PropOp35
 70
     1
102
RTVSPost2010Prop36
280
     0
102
RTVSPost2010PropOp36
 70
     1
102
RTVSPost2010Prop37
 90
       50
102
RTVSPost2010PropOp37
 70
     1
102
RTVSPost2010Prop38
140
0.0
102
RTVSPost2010PropOp38
 70
     1
102
RTVSPost2010Prop39
140
1.0
102
RTVSPost2010PropOp39
 70
     1
102
RTVSPost2010Prop40
 90
        0
102
RTVSPost2010PropOp40
 70
     1
102
RTVSPost2010Prop41ColorIndex
 90
       18
102
RTVSPost2010Prop41ColorRGB
 90
        0
102
RTVSPost2010PropOp41
 70
     1
102
RTVSPost2010Prop42
 90
       50
102
RTVSPost2010PropOp42
 70
     1
102
RTVSPost2010Prop43
 90
        3
102
RTVSPost2010PropOp43
 70
     1
102
RTVSPost2010Prop44ColorIndex
 90
        5
102
RTVSPost2010Prop44ColorRGB
 90
      255
102
RTVSPost2010PropOp44
 70
     1
102
RTVSPost2010Prop45
280
     0
102
RTVSPost2010PropOp45
 70
     1
102
RTVSPost2010Prop46
 90
       50
102
RTVSPost2010PropOp46
 70
     1
102
RTVSPost2010Prop47
 90
       50
102
RTVSPost2010PropOp47
 70
     1
102
RTVSPost2010Prop48
 90
       50
102
RTVSPost2010PropOp48
 70
     1
102
RTVSPost2010Prop49
280
     0
102
RTVSPost2010PropOp49
 70
     1
102
RTVSPost2010Prop50
 90
       50
102
RTVSPost2010PropOp50
 70
     1
102
RTVSPost2010Prop51ColorIndex
 90
      256
102
RTVSPost2010Prop51ColorRGB
 90
-16777216
102
RTVSPost2010PropOp51
 70
     0
102
RTVSPost2010Prop52
140
1.0
102
RTVSPost2010PropOp52
 70
     0
102
RTVSPost2010Prop53
 90
        2
102
RTVSPost2010PropOp53
 70
     1
102
RTVSPost2010Prop54
  1
strokes_ogs.tif
102
RTVSPost2010PropOp54
 70
     1
102
RTVSPost2010Prop55
280
     0
102
RTVSPost2010PropOp55
 70
     1
102
RTVSPost2010Prop56
140
1.0
102
RTVSPost2010PropOp56
 70
     1
102
RTVSPost2010Prop57
140
1.0
102
RTVSPost2010PropOp57
 70
     1
102
RTVSPropertyOp0
 70
     1
102
RTVSPropertyOp1
 70
     1
102
RTVSPropertyOp2
 70
     1
102
RTVSPropertyOp3
 70
     1
102
RTVSPropertyOp4
 70
     1
102
RTVSPropertyOp5
 70
     1
102
RTVSPropertyOp6
 70
     1
102
RTVSPropertyOp7
 70
     1
102
RTVSPropertyOp8
 70
     1
102
RTVSPropertyOp9
 70
     1
102
RTVSPropertyOp10
 70
     1
102
RTVSPropertyOp11
 70
     1
102
RTVSPropertyOp12
 70
     1
102
RTVSPropertyOp13
 70
     1
102
RTVSPropertyOp14
 70
     1
102
RTVSPropertyOp15
 70
     1
102
RTVSPropertyOp16
 70
     1
102
RTVSPropertyOp17
 70
     1
102
RTVSPropertyOp18
 70
     1
102
RTVSPropertyOp19
 70
     1
102
RTVSPropertyOp20
 70
     1
102
RTVSPropertyOp21
 70
     1
102
RTVSPropertyOp22
 70
     1
102
RTVSPropertyOp23
 70
     1
102
RTVSPropertyOp24
 70
     1
102
RTVSPropertyOp25
 70
     1
102
RTVSPropertyOp26
 70
     1
102
RTVSPropertyOp27
 70
     1
102
RTVSPropertyOp28
 70
     1
102
RTVSPropertyOp29
 70
     1
102
RTVSPropertyOp30
 70
     1
102
RTVSPropertyOp31
 70
     1
102
RTVSPropertyOp32
 70
     1
102
RTVSPropertyOp33
 70
     1
102
RTVSPropertyOp34
 70
     1
102
RTVSPropertyOp35
 70
     1
102
RTVSPropertyOp36
 70
     1
102
RTVSPropertyOp37
 70
     1
102
RTVSPropertyOp38
 70
     1
102
RTVSPropertyOp39
 70
     1
102
RTVSPropertyOp40
 70
     1
102
RTVSPropertyOp41
 70
     1
102
RTVSPropertyOp42
 70
     1
102
RTVSPropertyOp43
 70
     1
102
RTVSPropertyOp44
 70
     1
102
RTVSPropertyOp45
 70
     1
102
RTVSPropertyOp46
 70
     1
102
RTVSPropertyOp47
 70
     1
102
RTVSPropertyOp48
 70
     1
102
RTVSPropertyOp49
 70
     1
102
RTVSPropertyOp50
 70
     1
102
RTVSPropertyOp51
 70
     0
102
RTVSPropertyOp52
 70
     0
102
RTVSPropertyOp53
 70
     1
102
RTVSPropertyOp54
 70
     1
102
RTVSPropertyOp55
 70
     1
102
RTVSPropertyOp56
 70
     1
102
RTVSPropertyOp57
 70
     1
102
RTVSPropertyOp58
 70
     1
102
RTVSPropertyOp59
 70
     1
102
RTVSPropertyOp60
 70
     1
102
RTVSPropertyOp61
 70
     1
102
RTVSPropertyOp62
 70
     1
  0
XRECORD
  5
517
102
{ACAD_REACTORS
330
516
102
}
330
516
100
AcDbXrecord
280
     1
102
RTVSPost2010Prop28
280
     0
102
RTVSPost2010PropOp28
 70
     1
102
RTVSPost2010Prop29
280
     1
102
RTVSPost2010PropOp29
 70
     1
102
RTVSPost2010Prop30
280
     1
102
RTVSPost2010PropOp30
 70
     1
102
RTVSPost2010Prop31
280
     0
102
RTVSPost2010PropOp31
 70
     1
102
RTVSPost2010Prop32
280
     0
102
RTVSPost2010PropOp32
 70
     1
102
RTVSPost2010Prop33
280
     0
102
RTVSPost2010PropOp33
 70
     1
102
RTVSPost2010Prop34
280
     0
102
RTVSPost2010PropOp34
 70
     1
102
RTVSPost2010Prop35
280
     0
102
RTVSPost2010PropOp35
 70
     1
102
RTVSPost2010Prop36
280
     0
102
RTVSPost2010PropOp36
 70
     1
102
RTVSPost2010Prop37
 90
       50
102
RTVSPost2010PropOp37
 70
     1
102
RTVSPost2010Prop38
140
0.0
102
RTVSPost2010PropOp38
 70
     1
102
RTVSPost2010Prop39
140
1.0
102
RTVSPost2010PropOp39
 70
     1
102
RTVSPost2010Prop40
 90
        0
102
RTVSPost2010PropOp40
 70
     1
102
RTVSPost2010Prop41ColorIndex
 90
       18
102
RTVSPost2010Prop41ColorRGB
 90
        0
102
RTVSPost2010PropOp41
 70
     1
102
RTVSPost2010Prop42
 90
       50
102
RTVSPost2010PropOp42
 70
     1
102
RTVSPost2010Prop43
 90
        3
102
RTVSPost2010PropOp43
 70
     1
102
RTVSPost2010Prop44ColorIndex
 90
        5
102
RTVSPost2010Prop44ColorRGB
 90
      255
102
RTVSPost2010PropOp44
 70
     1
102
RTVSPost2010Prop45
280
     0
102
RTVSPost2010PropOp45
 70
     1
102
RTVSPost2010Prop46
 90
       50
102
RTVSPost2010PropOp46
 70
     1
102
RTVSPost2010Prop47
 90
       50
102
RTVSPost2010PropOp47
 70
     1
102
RTVSPost2010Prop48
 90
       50
102
RTVSPost2010PropOp48
 70
     1
102
RTVSPost2010Prop49
280
     0
102
RTVSPost2010PropOp49
 70
     1
102
RTVSPost2010Prop50
 90
       50
102
RTVSPost2010PropOp50
 70
     1
102
RTVSPost2010Prop51ColorIndex
 90
      256
102
RTVSPost2010Prop51ColorRGB
 90
-16777216
102
RTVSPost2010PropOp51
 70
     0
102
RTVSPost2010Prop52
140
1.0
102
RTVSPost2010PropOp52
 70
     0
102
RTVSPost2010Prop53
 90
        2
102
RTVSPost2010PropOp53
 70
     1
102
RTVSPost2010Prop54
  1
strokes_ogs.tif
102
RTVSPost2010PropOp54
 70
     1
102
RTVSPost2010Prop55
280
     0
102
RTVSPost2010PropOp55
 70
     1
102
RTVSPost2010Prop56
140
1.0
102
RTVSPost2010PropOp56
 70
     1
102
RTVSPost2010Prop57
140
1.0
102
RTVSPost2010PropOp57
 70
     1
102
RTVSPropertyOp0
 70
     1
102
RTVSPropertyOp1
 70
     1
102
RTVSPropertyOp2
 70
     1
102
RTVSPropertyOp3
 70
     1
102
RTVSPropertyOp4
 70
     1
102
RTVSPropertyOp5
 70
     1
102
RTVSPropertyOp6
 70
     1
102
RTVSPropertyOp7
 70
     1
102
RTVSPropertyOp8
 70
     1
102
RTVSPropertyOp9
 70
     1
102
RTVSPropertyOp10
 70
     1
102
RTVSPropertyOp11
 70
     1
102
RTVSPropertyOp12
 70
     1
102
RTVSPropertyOp13
 70
     1
102
RTVSPropertyOp14
 70
     1
102
RTVSPropertyOp15
 70
     1
102
RTVSPropertyOp16
 70
     1
102
RTVSPropertyOp17
 70
     1
102
RTVSPropertyOp18
 70
     1
102
RTVSPropertyOp19
 70
     1
102
RTVSPropertyOp20
 70
     1
102
RTVSPropertyOp21
 70
     1
102
RTVSPropertyOp22
 70
     1
102
RTVSPropertyOp23
 70
     1
102
RTVSPropertyOp24
 70
     1
102
RTVSPropertyOp25
 70
     1
102
RTVSPropertyOp26
 70
     1
102
RTVSPropertyOp27
 70
     1
102
RTVSPropertyOp28
 70
     1
102
RTVSPropertyOp29
 70
     1
102
RTVSPropertyOp30
 70
     1
102
RTVSPropertyOp31
 70
     1
102
RTVSPropertyOp32
 70
     1
102
RTVSPropertyOp33
 70
     1
102
RTVSPropertyOp34
 70
     1
102
RTVSPropertyOp35
 70
     1
102
RTVSPropertyOp36
 70
     1
102
RTVSPropertyOp37
 70
     1
102
RTVSPropertyOp38
 70
     1
102
RTVSPropertyOp39
 70
     1
102
RTVSPropertyOp40
 70
     1
102
RTVSPropertyOp41
 70
     1
102
RTVSPropertyOp42
 70
     1
102
RTVSPropertyOp43
 70
     1
102
RTVSPropertyOp44
 70
     1
102
RTVSPropertyOp45
 70
     1
102
RTVSPropertyOp46
 70
     1
102
RTVSPropertyOp47
 70
     1
102
RTVSPropertyOp48
 70
     1
102
RTVSPropertyOp49
 70
     1
102
RTVSPropertyOp50
 70
     1
102
RTVSPropertyOp51
 70
     0
102
RTVSPropertyOp52
 70
     0
102
RTVSPropertyOp53
 70
     1
102
RTVSPropertyOp54
 70
     1
102
RTVSPropertyOp55
 70
     1
102
RTVSPropertyOp56
 70
     1
102
RTVSPropertyOp57
 70
     1
102
RTVSPropertyOp58
 70
     1
102
RTVSPropertyOp59
 70
     1
102
RTVSPropertyOp60
 70
     1
102
RTVSPropertyOp61
 70
     1
102
RTVSPropertyOp62
 70
     1
  0
XRECORD
  5
511
102
{ACAD_REACTORS
330
510
102
}
330
510
100
AcDbXrecord
280
     1
102
RTVSPost2010Prop28
280
     0
102
RTVSPost2010PropOp28
 70
     1
102
RTVSPost2010Prop29
280
     1
102
RTVSPost2010PropOp29
 70
     1
102
RTVSPost2010Prop30
280
     1
102
RTVSPost2010PropOp30
 70
     1
102
RTVSPost2010Prop31
280
     0
102
RTVSPost2010PropOp31
 70
     1
102
RTVSPost2010Prop32
280
     0
102
RTVSPost2010PropOp32
 70
     1
102
RTVSPost2010Prop33
280
     0
102
RTVSPost2010PropOp33
 70
     1
102
RTVSPost2010Prop34
280
     0
102
RTVSPost2010PropOp34
 70
     1
102
RTVSPost2010Prop35
280
     0
102
RTVSPost2010PropOp35
 70
     1
102
RTVSPost2010Prop36
280
     0
102
RTVSPost2010PropOp36
 70
     1
102
RTVSPost2010Prop37
 90
       50
102
RTVSPost2010PropOp37
 70
     1
102
RTVSPost2010Prop38
140
0.0
102
RTVSPost2010PropOp38
 70
     1
102
RTVSPost2010Prop39
140
1.0
102
RTVSPost2010PropOp39
 70
     1
102
RTVSPost2010Prop40
 90
        0
102
RTVSPost2010PropOp40
 70
     1
102
RTVSPost2010Prop41ColorIndex
 90
       18
102
RTVSPost2010Prop41ColorRGB
 90
        0
102
RTVSPost2010PropOp41
 70
     1
102
RTVSPost2010Prop42
 90
       50
102
RTVSPost2010PropOp42
 70
     1
102
RTVSPost2010Prop43
 90
        3
102
RTVSPost2010PropOp43
 70
     1
102
RTVSPost2010Prop44ColorIndex
 90
        5
102
RTVSPost2010Prop44ColorRGB
 90
      255
102
RTVSPost2010PropOp44
 70
     1
102
RTVSPost2010Prop45
280
     0
102
RTVSPost2010PropOp45
 70
     1
102
RTVSPost2010Prop46
 90
       50
102
RTVSPost2010PropOp46
 70
     1
102
RTVSPost2010Prop47
 90
       50
102
RTVSPost2010PropOp47
 70
     1
102
RTVSPost2010Prop48
 90
       50
102
RTVSPost2010PropOp48
 70
     1
102
RTVSPost2010Prop49
280
     0
102
RTVSPost2010PropOp49
 70
     1
102
RTVSPost2010Prop50
 90
       50
102
RTVSPost2010PropOp50
 70
     1
102
RTVSPost2010Prop51ColorIndex
 90
      256
102
RTVSPost2010Prop51ColorRGB
 90
-16777216
102
RTVSPost2010PropOp51
 70
     0
102
RTVSPost2010Prop52
140
1.0
102
RTVSPost2010PropOp52
 70
     0
102
RTVSPost2010Prop53
 90
        2
102
RTVSPost2010PropOp53
 70
     1
102
RTVSPost2010Prop54
  1
strokes_ogs.tif
102
RTVSPost2010PropOp54
 70
     1
102
RTVSPost2010Prop55
280
     0
102
RTVSPost2010PropOp55
 70
     1
102
RTVSPost2010Prop56
140
1.0
102
RTVSPost2010PropOp56
 70
     1
102
RTVSPost2010Prop57
140
1.0
102
RTVSPost2010PropOp57
 70
     1
102
RTVSPropertyOp0
 70
     1
102
RTVSPropertyOp1
 70
     1
102
RTVSPropertyOp2
 70
     1
102
RTVSPropertyOp3
 70
     1
102
RTVSPropertyOp4
 70
     1
102
RTVSPropertyOp5
 70
     1
102
RTVSPropertyOp6
 70
     1
102
RTVSPropertyOp7
 70
     1
102
RTVSPropertyOp8
 70
     1
102
RTVSPropertyOp9
 70
     1
102
RTVSPropertyOp10
 70
     1
102
RTVSPropertyOp11
 70
     1
102
RTVSPropertyOp12
 70
     1
102
RTVSPropertyOp13
 70
     1
102
RTVSPropertyOp14
 70
     1
102
RTVSPropertyOp15
 70
     1
102
RTVSPropertyOp16
 70
     1
102
RTVSPropertyOp17
 70
     1
102
RTVSPropertyOp18
 70
     1
102
RTVSPropertyOp19
 70
     1
102
RTVSPropertyOp20
 70
     1
102
RTVSPropertyOp21
 70
     1
102
RTVSPropertyOp22
 70
     1
102
RTVSPropertyOp23
 70
     1
102
RTVSPropertyOp24
 70
     1
102
RTVSPropertyOp25
 70
     1
102
RTVSPropertyOp26
 70
     1
102
RTVSPropertyOp27
 70
     1
102
RTVSPropertyOp28
 70
     1
102
RTVSPropertyOp29
 70
     1
102
RTVSPropertyOp30
 70
     1
102
RTVSPropertyOp31
 70
     1
102
RTVSPropertyOp32
 70
     1
102
RTVSPropertyOp33
 70
     1
102
RTVSPropertyOp34
 70
     1
102
RTVSPropertyOp35
 70
     1
102
RTVSPropertyOp36
 70
     1
102
RTVSPropertyOp37
 70
     1
102
RTVSPropertyOp38
 70
     1
102
RTVSPropertyOp39
 70
     1
102
RTVSPropertyOp40
 70
     1
102
RTVSPropertyOp41
 70
     1
102
RTVSPropertyOp42
 70
     1
102
RTVSPropertyOp43
 70
     1
102
RTVSPropertyOp44
 70
     1
102
RTVSPropertyOp45
 70
     1
102
RTVSPropertyOp46
 70
     1
102
RTVSPropertyOp47
 70
     1
102
RTVSPropertyOp48
 70
     1
102
RTVSPropertyOp49
 70
     1
102
RTVSPropertyOp50
 70
     1
102
RTVSPropertyOp51
 70
     0
102
RTVSPropertyOp52
 70
     0
102
RTVSPropertyOp53
 70
     1
102
RTVSPropertyOp54
 70
     1
102
RTVSPropertyOp55
 70
     1
102
RTVSPropertyOp56
 70
     1
102
RTVSPropertyOp57
 70
     1
102
RTVSPropertyOp58
 70
     1
102
RTVSPropertyOp59
 70
     1
102
RTVSPropertyOp60
 70
     1
102
RTVSPropertyOp61
 70
     1
102
RTVSPropertyOp62
 70
     1
  0
XRECORD
  5
513
102
{ACAD_REACTORS
330
512
102
}
330
512
100
AcDbXrecord
280
     1
102
RTVSPost2010Prop28
280
     0
102
RTVSPost2010PropOp28
 70
     1
102
RTVSPost2010Prop29
280
     1
102
RTVSPost2010PropOp29
 70
     1
102
RTVSPost2010Prop30
280
     1
102
RTVSPost2010PropOp30
 70
     1
102
RTVSPost2010Prop31
280
     0
102
RTVSPost2010PropOp31
 70
     1
102
RTVSPost2010Prop32
280
     0
102
RTVSPost2010PropOp32
 70
     1
102
RTVSPost2010Prop33
280
     0
102
RTVSPost2010PropOp33
 70
     1
102
RTVSPost2010Prop34
280
     0
102
RTVSPost2010PropOp34
 70
     1
102
RTVSPost2010Prop35
280
     0
102
RTVSPost2010PropOp35
 70
     1
102
RTVSPost2010Prop36
280
     0
102
RTVSPost2010PropOp36
 70
     1
102
RTVSPost2010Prop37
 90
       50
102
RTVSPost2010PropOp37
 70
     1
102
RTVSPost2010Prop38
140
0.0
102
RTVSPost2010PropOp38
 70
     1
102
RTVSPost2010Prop39
140
1.0
102
RTVSPost2010PropOp39
 70
     1
102
RTVSPost2010Prop40
 90
        0
102
RTVSPost2010PropOp40
 70
     1
102
RTVSPost2010Prop41ColorIndex
 90
       18
102
RTVSPost2010Prop41ColorRGB
 90
        0
102
RTVSPost2010PropOp41
 70
     1
102
RTVSPost2010Prop42
 90
       50
102
RTVSPost2010PropOp42
 70
     1
102
RTVSPost2010Prop43
 90
        3
102
RTVSPost2010PropOp43
 70
     1
102
RTVSPost2010Prop44ColorIndex
 90
        5
102
RTVSPost2010Prop44ColorRGB
 90
      255
102
RTVSPost2010PropOp44
 70
     1
102
RTVSPost2010Prop45
280
     0
102
RTVSPost2010PropOp45
 70
     1
102
RTVSPost2010Prop46
 90
       50
102
RTVSPost2010PropOp46
 70
     1
102
RTVSPost2010Prop47
 90
       50
102
RTVSPost2010PropOp47
 70
     1
102
RTVSPost2010Prop48
 90
       50
102
RTVSPost2010PropOp48
 70
     1
102
RTVSPost2010Prop49
280
     0
102
RTVSPost2010PropOp49
 70
     1
102
RTVSPost2010Prop50
 90
       50
102
RTVSPost2010PropOp50
 70
     1
102
RTVSPost2010Prop51ColorIndex
 90
      256
102
RTVSPost2010Prop51ColorRGB
 90
-16777216
102
RTVSPost2010PropOp51
 70
     0
102
RTVSPost2010Prop52
140
1.0
102
RTVSPost2010PropOp52
 70
     0
102
RTVSPost2010Prop53
 90
        2
102
RTVSPost2010PropOp53
 70
     1
102
RTVSPost2010Prop54
  1
strokes_ogs.tif
102
RTVSPost2010PropOp54
 70
     1
102
RTVSPost2010Prop55
280
     0
102
RTVSPost2010PropOp55
 70
     1
102
RTVSPost2010Prop56
140
1.0
102
RTVSPost2010PropOp56
 70
     1
102
RTVSPost2010Prop57
140
1.0
102
RTVSPost2010PropOp57
 70
     1
102
RTVSPropertyOp0
 70
     1
102
RTVSPropertyOp1
 70
     1
102
RTVSPropertyOp2
 70
     1
102
RTVSPropertyOp3
 70
     1
102
RTVSPropertyOp4
 70
     1
102
RTVSPropertyOp5
 70
     1
102
RTVSPropertyOp6
 70
     1
102
RTVSPropertyOp7
 70
     1
102
RTVSPropertyOp8
 70
     1
102
RTVSPropertyOp9
 70
     1
102
RTVSPropertyOp10
 70
     1
102
RTVSPropertyOp11
 70
     1
102
RTVSPropertyOp12
 70
     1
102
RTVSPropertyOp13
 70
     1
102
RTVSPropertyOp14
 70
     1
102
RTVSPropertyOp15
 70
     1
102
RTVSPropertyOp16
 70
     1
102
RTVSPropertyOp17
 70
     1
102
RTVSPropertyOp18
 70
     1
102
RTVSPropertyOp19
 70
     1
102
RTVSPropertyOp20
 70
     1
102
RTVSPropertyOp21
 70
     1
102
RTVSPropertyOp22
 70
     1
102
RTVSPropertyOp23
 70
     1
102
RTVSPropertyOp24
 70
     1
102
RTVSPropertyOp25
 70
     1
102
RTVSPropertyOp26
 70
     1
102
RTVSPropertyOp27
 70
     1
102
RTVSPropertyOp28
 70
     1
102
RTVSPropertyOp29
 70
     1
102
RTVSPropertyOp30
 70
     1
102
RTVSPropertyOp31
 70
     1
102
RTVSPropertyOp32
 70
     1
102
RTVSPropertyOp33
 70
     1
102
RTVSPropertyOp34
 70
     1
102
RTVSPropertyOp35
 70
     1
102
RTVSPropertyOp36
 70
     1
102
RTVSPropertyOp37
 70
     1
102
RTVSPropertyOp38
 70
     1
102
RTVSPropertyOp39
 70
     1
102
RTVSPropertyOp40
 70
     1
102
RTVSPropertyOp41
 70
     1
102
RTVSPropertyOp42
 70
     1
102
RTVSPropertyOp43
 70
     1
102
RTVSPropertyOp44
 70
     1
102
RTVSPropertyOp45
 70
     1
102
RTVSPropertyOp46
 70
     1
102
RTVSPropertyOp47
 70
     1
102
RTVSPropertyOp48
 70
     1
102
RTVSPropertyOp49
 70
     1
102
RTVSPropertyOp50
 70
     1
102
RTVSPropertyOp51
 70
     0
102
RTVSPropertyOp52
 70
     0
102
RTVSPropertyOp53
 70
     1
102
RTVSPropertyOp54
 70
     1
102
RTVSPropertyOp55
 70
     1
102
RTVSPropertyOp56
 70
     1
102
RTVSPropertyOp57
 70
     1
102
RTVSPropertyOp58
 70
     1
102
RTVSPropertyOp59
 70
     1
102
RTVSPropertyOp60
 70
     1
102
RTVSPropertyOp61
 70
     1
102
RTVSPropertyOp62
 70
     1
  0
XRECORD
  5
503
102
{ACAD_REACTORS
330
502
102
}
330
502
100
AcDbXrecord
280
     1
102
RTVSPost2010Prop28
280
     0
102
RTVSPost2010PropOp28
 70
     1
102
RTVSPost2010Prop29
280
     1
102
RTVSPost2010PropOp29
 70
     1
102
RTVSPost2010Prop30
280
     1
102
RTVSPost2010PropOp30
 70
     1
102
RTVSPost2010Prop31
280
     0
102
RTVSPost2010PropOp31
 70
     1
102
RTVSPost2010Prop32
280
     0
102
RTVSPost2010PropOp32
 70
     1
102
RTVSPost2010Prop33
280
     0
102
RTVSPost2010PropOp33
 70
     1
102
RTVSPost2010Prop34
280
     0
102
RTVSPost2010PropOp34
 70
     1
102
RTVSPost2010Prop35
280
     0
102
RTVSPost2010PropOp35
 70
     1
102
RTVSPost2010Prop36
280
     0
102
RTVSPost2010PropOp36
 70
     1
102
RTVSPost2010Prop37
 90
       50
102
RTVSPost2010PropOp37
 70
     1
102
RTVSPost2010Prop38
140
0.0
102
RTVSPost2010PropOp38
 70
     1
102
RTVSPost2010Prop39
140
1.0
102
RTVSPost2010PropOp39
 70
     1
102
RTVSPost2010Prop40
 90
        0
102
RTVSPost2010PropOp40
 70
     1
102
RTVSPost2010Prop41ColorIndex
 90
       18
102
RTVSPost2010Prop41ColorRGB
 90
        0
102
RTVSPost2010PropOp41
 70
     1
102
RTVSPost2010Prop42
 90
       50
102
RTVSPost2010PropOp42
 70
     1
102
RTVSPost2010Prop43
 90
        3
102
RTVSPost2010PropOp43
 70
     1
102
RTVSPost2010Prop44ColorIndex
 90
        5
102
RTVSPost2010Prop44ColorRGB
 90
      255
102
RTVSPost2010PropOp44
 70
     1
102
RTVSPost2010Prop45
280
     0
102
RTVSPost2010PropOp45
 70
     1
102
RTVSPost2010Prop46
 90
       50
102
RTVSPost2010PropOp46
 70
     1
102
RTVSPost2010Prop47
 90
       50
102
RTVSPost2010PropOp47
 70
     1
102
RTVSPost2010Prop48
 90
       50
102
RTVSPost2010PropOp48
 70
     1
102
RTVSPost2010Prop49
280
     0
102
RTVSPost2010PropOp49
 70
     1
102
RTVSPost2010Prop50
 90
       50
102
RTVSPost2010PropOp50
 70
     1
102
RTVSPost2010Prop51ColorIndex
 90
      256
102
RTVSPost2010Prop51ColorRGB
 90
-16777216
102
RTVSPost2010PropOp51
 70
     0
102
RTVSPost2010Prop52
140
1.0
102
RTVSPost2010PropOp52
 70
     0
102
RTVSPost2010Prop53
 90
        2
102
RTVSPost2010PropOp53
 70
     1
102
RTVSPost2010Prop54
  1
strokes_ogs.tif
102
RTVSPost2010PropOp54
 70
     1
102
RTVSPost2010Prop55
280
     0
102
RTVSPost2010PropOp55
 70
     1
102
RTVSPost2010Prop56
140
1.0
102
RTVSPost2010PropOp56
 70
     1
102
RTVSPost2010Prop57
140
1.0
102
RTVSPost2010PropOp57
 70
     1
102
RTVSPropertyOp0
 70
     1
102
RTVSPropertyOp1
 70
     1
102
RTVSPropertyOp2
 70
     1
102
RTVSPropertyOp3
 70
     1
102
RTVSPropertyOp4
 70
     1
102
RTVSPropertyOp5
 70
     1
102
RTVSPropertyOp6
 70
     1
102
RTVSPropertyOp7
 70
     1
102
RTVSPropertyOp8
 70
     1
102
RTVSPropertyOp9
 70
     1
102
RTVSPropertyOp10
 70
     1
102
RTVSPropertyOp11
 70
     1
102
RTVSPropertyOp12
 70
     1
102
RTVSPropertyOp13
 70
     1
102
RTVSPropertyOp14
 70
     1
102
RTVSPropertyOp15
 70
     1
102
RTVSPropertyOp16
 70
     1
102
RTVSPropertyOp17
 70
     1
102
RTVSPropertyOp18
 70
     1
102
RTVSPropertyOp19
 70
     1
102
RTVSPropertyOp20
 70
     1
102
RTVSPropertyOp21
 70
     1
102
RTVSPropertyOp22
 70
     1
102
RTVSPropertyOp23
 70
     1
102
RTVSPropertyOp24
 70
     1
102
RTVSPropertyOp25
 70
     1
102
RTVSPropertyOp26
 70
     1
102
RTVSPropertyOp27
 70
     1
102
RTVSPropertyOp28
 70
     1
102
RTVSPropertyOp29
 70
     1
102
RTVSPropertyOp30
 70
     1
102
RTVSPropertyOp31
 70
     1
102
RTVSPropertyOp32
 70
     1
102
RTVSPropertyOp33
 70
     1
102
RTVSPropertyOp34
 70
     1
102
RTVSPropertyOp35
 70
     1
102
RTVSPropertyOp36
 70
     1
102
RTVSPropertyOp37
 70
     1
102
RTVSPropertyOp38
 70
     1
102
RTVSPropertyOp39
 70
     1
102
RTVSPropertyOp40
 70
     1
102
RTVSPropertyOp41
 70
     1
102
RTVSPropertyOp42
 70
     1
102
RTVSPropertyOp43
 70
     1
102
RTVSPropertyOp44
 70
     1
102
RTVSPropertyOp45
 70
     1
102
RTVSPropertyOp46
 70
     1
102
RTVSPropertyOp47
 70
     1
102
RTVSPropertyOp48
 70
     1
102
RTVSPropertyOp49
 70
     1
102
RTVSPropertyOp50
 70
     1
102
RTVSPropertyOp51
 70
     0
102
RTVSPropertyOp52
 70
     0
102
RTVSPropertyOp53
 70
     1
102
RTVSPropertyOp54
 70
     1
102
RTVSPropertyOp55
 70
     1
102
RTVSPropertyOp56
 70
     1
102
RTVSPropertyOp57
 70
     1
102
RTVSPropertyOp58
 70
     1
102
RTVSPropertyOp59
 70
     1
102
RTVSPropertyOp60
 70
     1
102
RTVSPropertyOp61
 70
     1
102
RTVSPropertyOp62
 70
     1
  0
XRECORD
  5
4F5
102
{ACAD_REACTORS
330
4F4
102
}
330
4F4
100
AcDbXrecord
280
     1
102
RTVSPost2010Prop28
280
     0
102
RTVSPost2010PropOp28
 70
     1
102
RTVSPost2010Prop29
280
     1
102
RTVSPost2010PropOp29
 70
     1
102
RTVSPost2010Prop30
280
     1
102
RTVSPost2010PropOp30
 70
     1
102
RTVSPost2010Prop31
280
     0
102
RTVSPost2010PropOp31
 70
     1
102
RTVSPost2010Prop32
280
     0
102
RTVSPost2010PropOp32
 70
     1
102
RTVSPost2010Prop33
280
     0
102
RTVSPost2010PropOp33
 70
     1
102
RTVSPost2010Prop34
280
     0
102
RTVSPost2010PropOp34
 70
     1
102
RTVSPost2010Prop35
280
     0
102
RTVSPost2010PropOp35
 70
     1
102
RTVSPost2010Prop36
280
     0
102
RTVSPost2010PropOp36
 70
     1
102
RTVSPost2010Prop37
 90
       50
102
RTVSPost2010PropOp37
 70
     1
102
RTVSPost2010Prop38
140
0.0
102
RTVSPost2010PropOp38
 70
     1
102
RTVSPost2010Prop39
140
1.0
102
RTVSPost2010PropOp39
 70
     1
102
RTVSPost2010Prop40
 90
        0
102
RTVSPost2010PropOp40
 70
     1
102
RTVSPost2010Prop41ColorIndex
 90
       18
102
RTVSPost2010Prop41ColorRGB
 90
        0
102
RTVSPost2010PropOp41
 70
     1
102
RTVSPost2010Prop42
 90
       50
102
RTVSPost2010PropOp42
 70
     1
102
RTVSPost2010Prop43
 90
        3
102
RTVSPost2010PropOp43
 70
     1
102
RTVSPost2010Prop44ColorIndex
 90
        5
102
RTVSPost2010Prop44ColorRGB
 90
      255
102
RTVSPost2010PropOp44
 70
     1
102
RTVSPost2010Prop45
280
     0
102
RTVSPost2010PropOp45
 70
     1
102
RTVSPost2010Prop46
 90
       50
102
RTVSPost2010PropOp46
 70
     1
102
RTVSPost2010Prop47
 90
       50
102
RTVSPost2010PropOp47
 70
     1
102
RTVSPost2010Prop48
 90
       50
102
RTVSPost2010PropOp48
 70
     1
102
RTVSPost2010Prop49
280
     0
102
RTVSPost2010PropOp49
 70
     1
102
RTVSPost2010Prop50
 90
       50
102
RTVSPost2010PropOp50
 70
     1
102
RTVSPost2010Prop51ColorIndex
 90
      256
102
RTVSPost2010Prop51ColorRGB
 90
-16777216
102
RTVSPost2010PropOp51
 70
     0
102
RTVSPost2010Prop52
140
1.0
102
RTVSPost2010PropOp52
 70
     0
102
RTVSPost2010Prop53
 90
        2
102
RTVSPost2010PropOp53
 70
     1
102
RTVSPost2010Prop54
  1
strokes_ogs.tif
102
RTVSPost2010PropOp54
 70
     1
102
RTVSPost2010Prop55
280
     0
102
RTVSPost2010PropOp55
 70
     1
102
RTVSPost2010Prop56
140
1.0
102
RTVSPost2010PropOp56
 70
     1
102
RTVSPost2010Prop57
140
1.0
102
RTVSPost2010PropOp57
 70
     1
102
RTVSPropertyOp0
 70
     1
102
RTVSPropertyOp1
 70
     1
102
RTVSPropertyOp2
 70
     1
102
RTVSPropertyOp3
 70
     1
102
RTVSPropertyOp4
 70
     1
102
RTVSPropertyOp5
 70
     1
102
RTVSPropertyOp6
 70
     1
102
RTVSPropertyOp7
 70
     1
102
RTVSPropertyOp8
 70
     1
102
RTVSPropertyOp9
 70
     1
102
RTVSPropertyOp10
 70
     1
102
RTVSPropertyOp11
 70
     1
102
RTVSPropertyOp12
 70
     1
102
RTVSPropertyOp13
 70
     1
102
RTVSPropertyOp14
 70
     1
102
RTVSPropertyOp15
 70
     1
102
RTVSPropertyOp16
 70
     1
102
RTVSPropertyOp17
 70
     1
102
RTVSPropertyOp18
 70
     1
102
RTVSPropertyOp19
 70
     1
102
RTVSPropertyOp20
 70
     1
102
RTVSPropertyOp21
 70
     1
102
RTVSPropertyOp22
 70
     1
102
RTVSPropertyOp23
 70
     1
102
RTVSPropertyOp24
 70
     1
102
RTVSPropertyOp25
 70
     1
102
RTVSPropertyOp26
 70
     1
102
RTVSPropertyOp27
 70
     1
102
RTVSPropertyOp28
 70
     1
102
RTVSPropertyOp29
 70
     1
102
RTVSPropertyOp30
 70
     1
102
RTVSPropertyOp31
 70
     1
102
RTVSPropertyOp32
 70
     1
102
RTVSPropertyOp33
 70
     1
102
RTVSPropertyOp34
 70
     1
102
RTVSPropertyOp35
 70
     1
102
RTVSPropertyOp36
 70
     1
102
RTVSPropertyOp37
 70
     1
102
RTVSPropertyOp38
 70
     1
102
RTVSPropertyOp39
 70
     1
102
RTVSPropertyOp40
 70
     1
102
RTVSPropertyOp41
 70
     1
102
RTVSPropertyOp42
 70
     1
102
RTVSPropertyOp43
 70
     1
102
RTVSPropertyOp44
 70
     1
102
RTVSPropertyOp45
 70
     1
102
RTVSPropertyOp46
 70
     1
102
RTVSPropertyOp47
 70
     1
102
RTVSPropertyOp48
 70
     1
102
RTVSPropertyOp49
 70
     1
102
RTVSPropertyOp50
 70
     1
102
RTVSPropertyOp51
 70
     0
102
RTVSPropertyOp52
 70
     0
102
RTVSPropertyOp53
 70
     1
102
RTVSPropertyOp54
 70
     1
102
RTVSPropertyOp55
 70
     1
102
RTVSPropertyOp56
 70
     1
102
RTVSPropertyOp57
 70
     1
102
RTVSPropertyOp58
 70
     1
102
RTVSPropertyOp59
 70
     1
102
RTVSPropertyOp60
 70
     1
102
RTVSPropertyOp61
 70
     1
102
RTVSPropertyOp62
 70
     1
  0
XRECORD
  5
515
102
{ACAD_REACTORS
330
514
102
}
330
514
100
AcDbXrecord
280
     1
102
RTVSPost2010Prop28
280
     0
102
RTVSPost2010PropOp28
 70
     1
102
RTVSPost2010Prop29
280
     1
102
RTVSPost2010PropOp29
 70
     1
102
RTVSPost2010Prop30
280
     1
102
RTVSPost2010PropOp30
 70
     1
102
RTVSPost2010Prop31
280
     0
102
RTVSPost2010PropOp31
 70
     1
102
RTVSPost2010Prop32
280
     0
102
RTVSPost2010PropOp32
 70
     1
102
RTVSPost2010Prop33
280
     0
102
RTVSPost2010PropOp33
 70
     1
102
RTVSPost2010Prop34
280
     0
102
RTVSPost2010PropOp34
 70
     1
102
RTVSPost2010Prop35
280
     0
102
RTVSPost2010PropOp35
 70
     1
102
RTVSPost2010Prop36
280
     0
102
RTVSPost2010PropOp36
 70
     1
102
RTVSPost2010Prop37
 90
       50
102
RTVSPost2010PropOp37
 70
     1
102
RTVSPost2010Prop38
140
0.0
102
RTVSPost2010PropOp38
 70
     1
102
RTVSPost2010Prop39
140
1.0
102
RTVSPost2010PropOp39
 70
     1
102
RTVSPost2010Prop40
 90
        0
102
RTVSPost2010PropOp40
 70
     1
102
RTVSPost2010Prop41ColorIndex
 90
       18
102
RTVSPost2010Prop41ColorRGB
 90
        0
102
RTVSPost2010PropOp41
 70
     1
102
RTVSPost2010Prop42
 90
       50
102
RTVSPost2010PropOp42
 70
     1
102
RTVSPost2010Prop43
 90
        3
102
RTVSPost2010PropOp43
 70
     1
102
RTVSPost2010Prop44ColorIndex
 90
        5
102
RTVSPost2010Prop44ColorRGB
 90
      255
102
RTVSPost2010PropOp44
 70
     1
102
RTVSPost2010Prop45
280
     0
102
RTVSPost2010PropOp45
 70
     1
102
RTVSPost2010Prop46
 90
       50
102
RTVSPost2010PropOp46
 70
     1
102
RTVSPost2010Prop47
 90
       50
102
RTVSPost2010PropOp47
 70
     1
102
RTVSPost2010Prop48
 90
       50
102
RTVSPost2010PropOp48
 70
     1
102
RTVSPost2010Prop49
280
     0
102
RTVSPost2010PropOp49
 70
     1
102
RTVSPost2010Prop50
 90
       50
102
RTVSPost2010PropOp50
 70
     1
102
RTVSPost2010Prop51ColorIndex
 90
      256
102
RTVSPost2010Prop51ColorRGB
 90
-16777216
102
RTVSPost2010PropOp51
 70
     0
102
RTVSPost2010Prop52
140
1.0
102
RTVSPost2010PropOp52
 70
     0
102
RTVSPost2010Prop53
 90
        2
102
RTVSPost2010PropOp53
 70
     1
102
RTVSPost2010Prop54
  1
strokes_ogs.tif
102
RTVSPost2010PropOp54
 70
     1
102
RTVSPost2010Prop55
280
     0
102
RTVSPost2010PropOp55
 70
     1
102
RTVSPost2010Prop56
140
1.0
102
RTVSPost2010PropOp56
 70
     1
102
RTVSPost2010Prop57
140
1.0
102
RTVSPost2010PropOp57
 70
     1
102
RTVSPropertyOp0
 70
     1
102
RTVSPropertyOp1
 70
     1
102
RTVSPropertyOp2
 70
     1
102
RTVSPropertyOp3
 70
     1
102
RTVSPropertyOp4
 70
     1
102
RTVSPropertyOp5
 70
     1
102
RTVSPropertyOp6
 70
     1
102
RTVSPropertyOp7
 70
     1
102
RTVSPropertyOp8
 70
     1
102
RTVSPropertyOp9
 70
     1
102
RTVSPropertyOp10
 70
     1
102
RTVSPropertyOp11
 70
     1
102
RTVSPropertyOp12
 70
     1
102
RTVSPropertyOp13
 70
     1
102
RTVSPropertyOp14
 70
     1
102
RTVSPropertyOp15
 70
     1
102
RTVSPropertyOp16
 70
     1
102
RTVSPropertyOp17
 70
     1
102
RTVSPropertyOp18
 70
     1
102
RTVSPropertyOp19
 70
     1
102
RTVSPropertyOp20
 70
     1
102
RTVSPropertyOp21
 70
     1
102
RTVSPropertyOp22
 70
     1
102
RTVSPropertyOp23
 70
     1
102
RTVSPropertyOp24
 70
     1
102
RTVSPropertyOp25
 70
     1
102
RTVSPropertyOp26
 70
     1
102
RTVSPropertyOp27
 70
     1
102
RTVSPropertyOp28
 70
     1
102
RTVSPropertyOp29
 70
     1
102
RTVSPropertyOp30
 70
     1
102
RTVSPropertyOp31
 70
     1
102
RTVSPropertyOp32
 70
     1
102
RTVSPropertyOp33
 70
     1
102
RTVSPropertyOp34
 70
     1
102
RTVSPropertyOp35
 70
     1
102
RTVSPropertyOp36
 70
     1
102
RTVSPropertyOp37
 70
     1
102
RTVSPropertyOp38
 70
     1
102
RTVSPropertyOp39
 70
     1
102
RTVSPropertyOp40
 70
     1
102
RTVSPropertyOp41
 70
     1
102
RTVSPropertyOp42
 70
     1
102
RTVSPropertyOp43
 70
     1
102
RTVSPropertyOp44
 70
     1
102
RTVSPropertyOp45
 70
     1
102
RTVSPropertyOp46
 70
     1
102
RTVSPropertyOp47
 70
     1
102
RTVSPropertyOp48
 70
     1
102
RTVSPropertyOp49
 70
     1
102
RTVSPropertyOp50
 70
     1
102
RTVSPropertyOp51
 70
     0
102
RTVSPropertyOp52
 70
     0
102
RTVSPropertyOp53
 70
     1
102
RTVSPropertyOp54
 70
     1
102
RTVSPropertyOp55
 70
     1
102
RTVSPropertyOp56
 70
     1
102
RTVSPropertyOp57
 70
     1
102
RTVSPropertyOp58
 70
     1
102
RTVSPropertyOp59
 70
     1
102
RTVSPropertyOp60
 70
     1
102
RTVSPropertyOp61
 70
     1
102
RTVSPropertyOp62
 70
     1
  0
ENDSEC
  0
EOF
