  0
SECTION
  2
HEADER
  9
$ACADVER
  1
AC1015
  9
$ACADMAINTVER
 70
    20
  9
$DWGCODEPAGE
  3
ANSI_932
  9
$INSBASE
 10
0.0
 20
0.0
 30
0.0
  9
$EXTMIN
 10
36582.00325952525
 20
-484.9645601908305
 30
0.0
  9
$EXTMAX
 10
40511.40627240342
 20
2194.38892676616
 30
0.0
  9
$LIMMIN
 10
0.0
 20
0.0
  9
$LIMMAX
 10
40000.0
 20
28292.0
  9
$ORTHOMODE
 70
     0
  9
$REGENMODE
 70
     1
  9
$FILLMODE
 70
     1
  9
$QTEXTMODE
 70
     0
  9
$MIRRTEXT
 70
     1
  9
$LTSCALE
 40
4.0
  9
$ATTMODE
 70
     1
  9
$TEXTSIZE
 40
0.2
  9
$TRACEWID
 40
0.05
  9
$TEXTSTYLE
  7
STANDARD
  9
$CLAYER
  8
0
  9
$CELTYPE
  6
CONTINUOUS
  9
$CECOLOR
 62
   256
  9
$CELTSCALE
 40
1.0
  9
$DISPSILH
 70
     0
  9
$DIMSCALE
 40
1.0
  9
$DIMASZ
 40
0.18
  9
$DIMEXO
 40
0.0625
  9
$DIMDLI
 40
0.38
  9
$DIMRND
 40
0.0
  9
$DIMDLE
 40
0.0
  9
$DIMEXE
 40
0.18
  9
$DIMTP
 40
0.0
  9
$DIMTM
 40
0.0
  9
$DIMTXT
 40
0.18
  9
$DIMCEN
 40
0.09
  9
$DIMTSZ
 40
0.0
  9
$DIMTOL
 70
     0
  9
$DIMLIM
 70
     0
  9
$DIMTIH
 70
     1
  9
$DIMTOH
 70
     1
  9
$DIMSE1
 70
     0
  9
$DIMSE2
 70
     0
  9
$DIMTAD
 70
     0
  9
$DIMZIN
 70
     0
  9
$DIMBLK
  1

  9
$DIMASO
 70
     1
  9
$DIMSHO
 70
     1
  9
$DIMPOST
  1

  9
$DIMAPOST
  1

  9
$DIMALT
 70
     0
  9
$DIMALTD
 70
     2
  9
$DIMALTF
 40
25.4
  9
$DIMLFAC
 40
1.0
  9
$DIMTOFL
 70
     0
  9
$DIMTVP
 40
0.0
  9
$DIMTIX
 70
     0
  9
$DIMSOXD
 70
     0
  9
$DIMSAH
 70
     0
  9
$DIMBLK1
  1

  9
$DIMBLK2
  1

  9
$DIMSTYLE
  2
Standard
  9
$DIMCLRD
 70
     0
  9
$DIMCLRE
 70
     0
  9
$DIMCLRT
 70
     0
  9
$DIMTFAC
 40
1.0
  9
$DIMGAP
 40
0.09
  9
$DIMJUST
 70
     0
  9
$DIMSD1
 70
     0
  9
$DIMSD2
 70
     0
  9
$DIMTOLJ
 70
     1
  9
$DIMTZIN
 70
     0
  9
$DIMALTZ
 70
     0
  9
$DIMALTTZ
 70
     0
  9
$DIMUPT
 70
     0
  9
$DIMDEC
 70
     4
  9
$DIMTDEC
 70
     4
  9
$DIMALTU
 70
     2
  9
$DIMALTTD
 70
     2
  9
$DIMTXSTY
  7
STANDARD
  9
$DIMAUNIT
 70
     0
  9
$DIMADEC
 70
     0
  9
$DIMALTRND
 40
0.0
  9
$DIMAZIN
 70
     0
  9
$DIMDSEP
 70
    46
  9
$DIMATFIT
 70
     3
  9
$DIMFRAC
 70
     0
  9
$DIMLDRBLK
  1

  9
$DIMLUNIT
 70
     2
  9
$DIMLWD
 70
    -2
  9
$DIMLWE
 70
    -2
  9
$DIMTMOVE
 70
     2
  9
$LUNITS
 70
     2
  9
$LUPREC
 70
     8
  9
$SKETCHINC
 40
0.1
  9
$FILLETRAD
 40
0.5
  9
$AUNITS
 70
     0
  9
$AUPREC
 70
     0
  9
$MENU
  1
.
  9
$ELEVATION
 40
0.0
  9
$PELEVATION
 40
0.0
  9
$THICKNESS
 40
0.0
  9
$LIMCHECK
 70
     0
  9
$CHAMFERA
 40
0.0
  9
$CHAMFERB
 40
0.0
  9
$CHAMFERC
 40
0.0
  9
$CHAMFERD
 40
0.0
  9
$SKPOLY
 70
     0
  9
$TDCREATE
 40
2459888.845370370
  9
$TDUCREATE
 40
2459888.470375891
  9
$TDUPDATE
 40
2460176.463437500
  9
$TDUUPDATE
 40
2460176.088437500
  9
$TDINDWG
 40
0.0010290046
  9
$TDUSRTIMER
 40
0.0000000116
  9
$USRTIMER
 70
     0
  9
$ANGBASE
 50
0.0
  9
$ANGDIR
 70
     0
  9
$PDMODE
 70
     0
  9
$PDSIZE
 40
0.0
  9
$PLINEWID
 40
0.0
  9
$SPLFRAME
 70
     0
  9
$SPLINETYPE
 70
     6
  9
$SPLINESEGS
 70
     8
  9
$HANDSEED
  5
42F
  9
$SURFTAB1
 70
     6
  9
$SURFTAB2
 70
     6
  9
$SURFTYPE
 70
     6
  9
$SURFU
 70
     6
  9
$SURFV
 70
     6
  9
$UCSBASE
  2

  9
$UCSNAME
  2

  9
$UCSORG
 10
0.0
 20
0.0
 30
0.0
  9
$UCSXDIR
 10
1.0
 20
0.0
 30
0.0
  9
$UCSYDIR
 10
0.0
 20
1.0
 30
0.0
  9
$UCSORTHOREF
  2

  9
$UCSORTHOVIEW
 70
     0
  9
$UCSORGTOP
 10
0.0
 20
0.0
 30
0.0
  9
$UCSORGBOTTOM
 10
0.0
 20
0.0
 30
0.0
  9
$UCSORGLEFT
 10
0.0
 20
0.0
 30
0.0
  9
$UCSORGRIGHT
 10
0.0
 20
0.0
 30
0.0
  9
$UCSORGFRONT
 10
0.0
 20
0.0
 30
0.0
  9
$UCSORGBACK
 10
0.0
 20
0.0
 30
0.0
  9
$PUCSBASE
  2

  9
$PUCSNAME
  2

  9
$PUCSORG
 10
0.0
 20
0.0
 30
0.0
  9
$PUCSXDIR
 10
1.0
 20
0.0
 30
0.0
  9
$PUCSYDIR
 10
0.0
 20
1.0
 30
0.0
  9
$PUCSORTHOREF
  2

  9
$PUCSORTHOVIEW
 70
     0
  9
$PUCSORGTOP
 10
0.0
 20
0.0
 30
0.0
  9
$PUCSORGBOTTOM
 10
0.0
 20
0.0
 30
0.0
  9
$PUCSORGLEFT
 10
0.0
 20
0.0
 30
0.0
  9
$PUCSORGRIGHT
 10
0.0
 20
0.0
 30
0.0
  9
$PUCSORGFRONT
 10
0.0
 20
0.0
 30
0.0
  9
$PUCSORGBACK
 10
0.0
 20
0.0
 30
0.0
  9
$USERI1
 70
     0
  9
$USERI2
 70
     0
  9
$USERI3
 70
     0
  9
$USERI4
 70
     0
  9
$USERI5
 70
     0
  9
$USERR1
 40
0.0
  9
$USERR2
 40
0.0
  9
$USERR3
 40
0.0
  9
$USERR4
 40
0.0
  9
$USERR5
 40
0.0
  9
$WORLDVIEW
 70
     1
  9
$SHADEDGE
 70
     3
  9
$SHADEDIF
 70
    70
  9
$TILEMODE
 70
     1
  9
$MAXACTVP
 70
    64
  9
$PINSBASE
 10
0.0
 20
0.0
 30
0.0
  9
$PLIMCHECK
 70
     0
  9
$PEXTMIN
 10
1.000000000000000E+20
 20
1.000000000000000E+20
 30
1.000000000000000E+20
  9
$PEXTMAX
 10
-1.000000000000000E+20
 20
-1.000000000000000E+20
 30
-1.000000000000000E+20
  9
$PLIMMIN
 10
0.0
 20
0.0
  9
$PLIMMAX
 10
12.0
 20
9.0
  9
$UNITMODE
 70
     0
  9
$VISRETAIN
 70
     1
  9
$PLINEGEN
 70
     0
  9
$PSLTSCALE
 70
     1
  9
$TREEDEPTH
 70
  3020
  9
$CMLSTYLE
  2
Standard
  9
$CMLJUST
 70
     0
  9
$CMLSCALE
 40
1.0
  9
$PROXYGRAPHICS
 70
     1
  9
$MEASUREMENT
 70
     0
  9
$CELWEIGHT
370
    -1
  9
$ENDCAPS
280
     0
  9
$JOINSTYLE
280
     0
  9
$LWDISPLAY
290
     0
  9
$INSUNITS
 70
     0
  9
$HYPERLINKBASE
  1

  9
$STYLESHEET
  1

  9
$XEDIT
290
     1
  9
$CEPSNTYPE
380
     3
  9
$CEPSNID
390
11
  9
$PSTYLEMODE
290
     1
  9
$FINGERPRINTGUID
  2
{E5DBB86F-0792-4A91-AD81-9BAF8456F882}
  9
$VERSIONGUID
  2
{FAEB1C32-E019-11D5-929B-00C0DF256EC4}
  9
$EXTNAMES
290
     1
  9
$PSVPSCALE
 40
0.0
  9
$OLESTARTUP
290
     0
  0
ENDSEC
  0
SECTION
  2
CLASSES
  0
CLASS
  1
ACDBDICTIONARYWDFLT
  2
AcDbDictionaryWithDefault
  3
ObjectDBX Classes
 90
        0
280
     0
281
     0
  0
CLASS
  1
SCALE
  2
AcDbScale
  3
ObjectDBX Classes
 90
     1153
280
     0
281
     0
  0
CLASS
  1
VISUALSTYLE
  2
AcDbVisualStyle
  3
ObjectDBX Classes
 90
     4095
280
     0
281
     0
  0
CLASS
  1
MATERIAL
  2
AcDbMaterial
  3
ObjectDBX Classes
 90
     1153
280
     0
281
     0
  0
CLASS
  1
TABLESTYLE
  2
AcDbTableStyle
  3
ObjectDBX Classes
 90
     4095
280
     0
281
     0
  0
CLASS
  1
MLEADERSTYLE
  2
AcDbMLeaderStyle
  3
ACDB_MLEADERSTYLE_CLASS
 90
     4095
280
     0
281
     0
  0
CLASS
  1
DICTIONARYVAR
  2
AcDbDictionaryVar
  3
ObjectDBX Classes
 90
        0
280
     0
281
     0
  0
CLASS
  1
CELLSTYLEMAP
  2
AcDbCellStyleMap
  3
ObjectDBX Classes
 90
     1152
280
     0
281
     0
  0
CLASS
  1
ACDBSECTIONVIEWSTYLE
  2
AcDbSectionViewStyle
  3
ObjectDBX Classes
 90
     1025
280
     0
281
     0
  0
CLASS
  1
ACDBDETAILVIEWSTYLE
  2
AcDbDetailViewStyle
  3
ObjectDBX Classes
 90
     1025
280
     0
281
     0
  0
CLASS
  1
ACDBPLACEHOLDER
  2
AcDbPlaceHolder
  3
ObjectDBX Classes
 90
        0
280
     0
281
     0
  0
CLASS
  1
LAYOUT
  2
AcDbLayout
  3
ObjectDBX Classes
 90
        0
280
     0
281
     0
  0
ENDSEC
  0
SECTION
  2
TABLES
  0
TABLE
  2
VPORT
  5
8
330
0
100
AcDbSymbolTable
 70
     1
  0
VPORT
  5
33F
330
8
100
AcDbSymbolTableRecord
100
AcDbViewportTableRecord
  2
*Active
 70
     0
 10
0.0
 20
0.0
 11
1.0
 21
1.0
 12
38546.70476596432
 22
2118.251537617521
 13
0.0
 23
0.0
 14
0.5
 24
0.5
 15
0.5
 25
0.5
 16
0.0
 26
0.0
 36
1.0
 17
0.0
 27
0.0
 37
0.0
 40
5237.09718545312
 41
1.351851851851851
 42
50.0
 43
0.0
 44
0.0
 50
0.0
 51
0.0
 71
     0
 72
   100
 73
     1
 74
     3
 75
     0
 76
     0
 77
     0
 78
     0
281
     0
 65
     1
110
0.0
120
0.0
130
0.0
111
1.0
121
0.0
131
0.0
112
0.0
122
1.0
132
0.0
 79
     0
146
0.0
1001
ACAD_NAV_VCDISPLAY
1070
     3
  0
ENDTAB
  0
TABLE
  2
LTYPE
  5
5
330
0
100
AcDbSymbolTable
 70
    51
  0
LTYPE
  5
14
330
5
100
AcDbSymbolTableRecord
100
AcDbLinetypeTableRecord
  2
ByBlock
 70
     0
  3

 72
    65
 73
     0
 40
0.0
  0
LTYPE
  5
15
330
5
100
AcDbSymbolTableRecord
100
AcDbLinetypeTableRecord
  2
ByLayer
 70
     0
  3

 72
    65
 73
     0
 40
0.0
  0
LTYPE
  5
16
330
5
100
AcDbSymbolTableRecord
100
AcDbLinetypeTableRecord
  2
CONTINUOUS
 70
     0
  3
実線
 72
    65
 73
     0
 40
0.0
  0
LTYPE
  5
21
330
5
100
AcDbSymbolTableRecord
100
AcDbLinetypeTableRecord
  2
DASHED1
 70
     0
  3
--  --  --  --  --  --  --  --  
 72
    65
 73
     2
 40
2.5
 49
1.25
 74
     0
 49
-1.25
 74
     0
  0
LTYPE
  5
22
330
5
100
AcDbSymbolTableRecord
100
AcDbLinetypeTableRecord
  2
DASHED2
 70
     0
  3
----    ----    ----    ----    
 72
    65
 73
     2
 40
5.0
 49
2.5
 74
     0
 49
-2.5
 74
     0
  0
LTYPE
  5
23
330
5
100
AcDbSymbolTableRecord
100
AcDbLinetypeTableRecord
  2
DASHED3
 70
     0
  3
------  ------  ------  ------  
 72
    65
 73
     2
 40
5.0
 49
3.75
 74
     0
 49
-1.25
 74
     0
  0
LTYPE
  5
24
330
5
100
AcDbSymbolTableRecord
100
AcDbLinetypeTableRecord
  2
CENTER1
 70
     0
  3
----- - ----- - ----- - ----- - 
 72
    65
 73
     4
 40
10.0
 49
6.25
 74
     0
 49
-1.25
 74
     0
 49
1.25
 74
     0
 49
-1.25
 74
     0
  0
LTYPE
  5
25
330
5
100
AcDbSymbolTableRecord
100
AcDbLinetypeTableRecord
  2
CENTER2
 70
     0
  3
----------  --  ----------  --  
 72
    65
 73
     4
 40
20.0
 49
12.5
 74
     0
 49
-2.5
 74
     0
 49
2.5
 74
     0
 49
-2.5
 74
     0
  0
LTYPE
  5
26
330
5
100
AcDbSymbolTableRecord
100
AcDbLinetypeTableRecord
  2
PHANTOM1
 70
     0
  3
--- - - --- - - --- - - --- - - 
 72
    65
 73
     6
 40
9.5
 49
3.25
 74
     0
 49
-1.25
 74
     0
 49
1.25
 74
     0
 49
-1.25
 74
     0
 49
1.25
 74
     0
 49
-1.25
 74
     0
  0
LTYPE
  5
27
330
5
100
AcDbSymbolTableRecord
100
AcDbLinetypeTableRecord
  2
PHANTOM2
 70
     0
  3
--------  -  -  --------  -  -  
 72
    65
 73
     6
 40
20.0
 49
10.0
 74
     0
 49
-2.5
 74
     0
 49
1.25
 74
     0
 49
-2.5
 74
     0
 49
1.25
 74
     0
 49
-2.5
 74
     0
  0
LTYPE
  5
28
330
5
100
AcDbSymbolTableRecord
100
AcDbLinetypeTableRecord
  2
DOT
 70
     0
  3
-   -   -   -   -   -   -   -   
 72
    65
 73
     2
 40
2.5
 49
0.625
 74
     0
 49
-1.875
 74
     0
  0
LTYPE
  5
29
330
5
100
AcDbSymbolTableRecord
100
AcDbLinetypeTableRecord
  2
DUMMY
 70
     0
  3
ダミー
 72
    65
 73
     0
 40
0.0
  0
LTYPE
  5
2A
330
5
100
AcDbSymbolTableRecord
100
AcDbLinetypeTableRecord
  2
RAND1
 70
     0
  3
ランダム線1
 72
    65
 73
     4
 40
10.0
 49
1.0
 74
     0
 49
-2.0
 74
     0
 49
3.0
 74
     0
 49
-4.0
 74
     0
  0
LTYPE
  5
2B
330
5
100
AcDbSymbolTableRecord
100
AcDbLinetypeTableRecord
  2
RAND2
 70
     0
  3
ランダム線2
 72
    65
 73
     4
 40
14.0
 49
2.0
 74
     0
 49
-3.0
 74
     0
 49
4.0
 74
     0
 49
-5.0
 74
     0
  0
LTYPE
  5
2C
330
5
100
AcDbSymbolTableRecord
100
AcDbLinetypeTableRecord
  2
RAND3
 70
     0
  3
ランダム線3
 72
    65
 73
     4
 40
18.0
 49
3.0
 74
     0
 49
-4.0
 74
     0
 49
5.0
 74
     0
 49
-6.0
 74
     0
  0
LTYPE
  5
2D
330
5
100
AcDbSymbolTableRecord
100
AcDbLinetypeTableRecord
  2
RAND4
 70
     0
  3
ランダム線4
 72
    65
 73
     4
 40
22.0
 49
4.0
 74
     0
 49
-5.0
 74
     0
 49
6.0
 74
     0
 49
-7.0
 74
     0
  0
LTYPE
  5
2E
330
5
100
AcDbSymbolTableRecord
100
AcDbLinetypeTableRecord
  2
RAND5
 70
     0
  3
ランダム線5
 72
    65
 73
     4
 40
26.0
 49
5.0
 74
     0
 49
-6.0
 74
     0
 49
7.0
 74
     0
 49
-8.0
 74
     0
  0
LTYPE
  5
2F
330
5
100
AcDbSymbolTableRecord
100
AcDbLinetypeTableRecord
  2
LONG1
 70
     0
  3
----------  --  ----------  --  
 72
    65
 73
     4
 40
40.0
 49
32.5
 74
     0
 49
-2.5
 74
     0
 49
2.5
 74
     0
 49
-2.5
 74
     0
  0
LTYPE
  5
30
330
5
100
AcDbSymbolTableRecord
100
AcDbLinetypeTableRecord
  2
LONG2
 70
     0
  3
--------  -  -  --------  -  -  
 72
    65
 73
     6
 40
40.0
 49
30.0
 74
     0
 49
-2.5
 74
     0
 49
1.25
 74
     0
 49
-2.5
 74
     0
 49
1.25
 74
     0
 49
-2.5
 74
     0
  0
LTYPE
  5
31
330
5
100
AcDbSymbolTableRecord
100
AcDbLinetypeTableRecord
  2
LONG3
 70
     0
  3
+++++++++++++++..+++++++++++++++
 72
    65
 73
     2
 40
40.0
 49
37.5
 74
     0
 49
-2.5
 74
     0
  0
LTYPE
  5
32
330
5
100
AcDbSymbolTableRecord
100
AcDbLinetypeTableRecord
  2
LONG4
 70
     0
  3
+++++++++++++++..+++++++++++++++
 72
    65
 73
     2
 40
80.0
 49
75.0
 74
     0
 49
-5.0
 74
     0
  0
LTYPE
  5
33
330
5
100
AcDbSymbolTableRecord
100
AcDbLinetypeTableRecord
  2
LONG5
 70
     0
  3
----------  --  ----------  --  
 72
    65
 73
     4
 40
60.0
 49
37.5
 74
     0
 49
-7.5
 74
     0
 49
7.5
 74
     0
 49
-7.5
 74
     0
  0
LTYPE
  5
34
330
5
100
AcDbSymbolTableRecord
100
AcDbLinetypeTableRecord
  2
dashed
 70
     0
  3
-------   -------------   ------
 72
    65
 73
     2
 40
7.5
 49
6.0
 74
     0
 49
-1.5
 74
     0
  0
LTYPE
  5
35
330
5
100
AcDbSymbolTableRecord
100
AcDbLinetypeTableRecord
  2
dashed_spaced
 70
     0
  3
----        --------        ----
 72
    65
 73
     2
 40
12.0
 49
6.0
 74
     0
 49
-6.0
 74
     0
  0
LTYPE
  5
36
330
5
100
AcDbSymbolTableRecord
100
AcDbLinetypeTableRecord
  2
long_dashed_dotted
 70
     0
  3
------------- --- --------------
 72
    65
 73
     4
 40
15.25
 49
12.0
 74
     0
 49
-1.5
 74
     0
 49
0.25
 74
     0
 49
-1.5
 74
     0
  0
LTYPE
  5
37
330
5
100
AcDbSymbolTableRecord
100
AcDbLinetypeTableRecord
  2
long_dashed_double-dotted
 70
     0
  3
----------- --- --- ------------
 72
    65
 73
     6
 40
17.0
 49
12.0
 74
     0
 49
-1.5
 74
     0
 49
0.25
 74
     0
 49
-1.5
 74
     0
 49
0.25
 74
     0
 49
-1.5
 74
     0
  0
LTYPE
  5
38
330
5
100
AcDbSymbolTableRecord
100
AcDbLinetypeTableRecord
  2
long_dashed_triplicate-dotted
 70
     0
  3
--------- --- --- --- ----------
 72
    65
 73
     8
 40
18.75
 49
12.0
 74
     0
 49
-1.5
 74
     0
 49
0.25
 74
     0
 49
-1.5
 74
     0
 49
0.25
 74
     0
 49
-1.5
 74
     0
 49
0.25
 74
     0
 49
-1.5
 74
     0
  0
LTYPE
  5
39
330
5
100
AcDbSymbolTableRecord
100
AcDbLinetypeTableRecord
  2
dotted
 70
     0
  3
   -       -       -       -    
 72
    65
 73
     2
 40
1.75
 49
0.25
 74
     0
 49
-1.5
 74
     0
  0
LTYPE
  5
3A
330
5
100
AcDbSymbolTableRecord
100
AcDbLinetypeTableRecord
  2
chain
 70
     0
  3
-------------- -- --------------
 72
    65
 73
     4
 40
18.5
 49
12.0
 74
     0
 49
-1.5
 74
     0
 49
3.5
 74
     0
 49
-1.5
 74
     0
  0
LTYPE
  5
3B
330
5
100
AcDbSymbolTableRecord
100
AcDbLinetypeTableRecord
  2
chain_double_dash
 70
     0
  3
------------ -- -- -------------
 72
    65
 73
     6
 40
23.5
 49
12.0
 74
     0
 49
-1.5
 74
     0
 49
3.5
 74
     0
 49
-1.5
 74
     0
 49
3.5
 74
     0
 49
-1.5
 74
     0
  0
LTYPE
  5
3C
330
5
100
AcDbSymbolTableRecord
100
AcDbLinetypeTableRecord
  2
dashed_dotted
 70
     0
  3
-----------     -     ----------
 72
    65
 73
     4
 40
9.25
 49
6.0
 74
     0
 49
-1.5
 74
     0
 49
0.25
 74
     0
 49
-1.5
 74
     0
  0
LTYPE
  5
3D
330
5
100
AcDbSymbolTableRecord
100
AcDbLinetypeTableRecord
  2
double-dashed_dotted
 70
     0
  3
------   -----------   -   -----
 72
    65
 73
     6
 40
16.75
 49
6.0
 74
     0
 49
-1.5
 74
     0
 49
6.0
 74
     0
 49
-1.5
 74
     0
 49
0.25
 74
     0
 49
-1.5
 74
     0
  0
LTYPE
  5
3E
330
5
100
AcDbSymbolTableRecord
100
AcDbLinetypeTableRecord
  2
dashed_double-dotted
 70
     0
  3
---------    -    -    ---------
 72
    65
 73
     6
 40
11.0
 49
6.0
 74
     0
 49
-1.5
 74
     0
 49
0.25
 74
     0
 49
-1.5
 74
     0
 49
0.25
 74
     0
 49
-1.5
 74
     0
  0
LTYPE
  5
3F
330
5
100
AcDbSymbolTableRecord
100
AcDbLinetypeTableRecord
  2
double-dashed_double-dotted
 70
     0
  3
-----   ---------   -   -   ----
 72
    65
 73
     8
 40
18.5
 49
6.0
 74
     0
 49
-1.5
 74
     0
 49
6.0
 74
     0
 49
-1.5
 74
     0
 49
0.25
 74
     0
 49
-1.5
 74
     0
 49
0.25
 74
     0
 49
-1.5
 74
     0
  0
LTYPE
  5
40
330
5
100
AcDbSymbolTableRecord
100
AcDbLinetypeTableRecord
  2
dashed_triplicate-dotted
 70
     0
  3
-------    -    -    -    ------
 72
    65
 73
     8
 40
12.75
 49
6.0
 74
     0
 49
-1.5
 74
     0
 49
0.25
 74
     0
 49
-1.5
 74
     0
 49
0.25
 74
     0
 49
-1.5
 74
     0
 49
0.25
 74
     0
 49
-1.5
 74
     0
  0
LTYPE
  5
41
330
5
100
AcDbSymbolTableRecord
100
AcDbLinetypeTableRecord
  2
double-dashed_triplicate-dotted
 70
     0
  3
-----  ---------  -  -  -  -----
 72
    65
 73
    10
 40
20.25
 49
6.0
 74
     0
 49
-1.5
 74
     0
 49
6.0
 74
     0
 49
-1.5
 74
     0
 49
0.25
 74
     0
 49
-1.5
 74
     0
 49
0.25
 74
     0
 49
-1.5
 74
     0
 49
0.25
 74
     0
 49
-1.5
 74
     0
  0
LTYPE
  5
42
330
5
100
AcDbSymbolTableRecord
100
AcDbLinetypeTableRecord
  2
undefined
 70
     0
  3
--------------------------------
 72
    65
 73
     0
 40
0.0
  0
LTYPE
  5
43
330
5
100
AcDbSymbolTableRecord
100
AcDbLinetypeTableRecord
  2
繝_繧_繝_繧_繧_繝__15
 70
     0
  3
----------      --    ----------
 72
    65
 73
     4
 40
1.041639999999999
 49
0.625
 74
     0
 49
-0.2082799999999999
 74
     0
 49
0.06943
 74
     0
 49
-0.13893
 74
     0
  0
LTYPE
  5
44
330
5
100
AcDbSymbolTableRecord
100
AcDbLinetypeTableRecord
  2
VW-01_遏_遐_邱__
 70
     0
  3
----        --------        ----
 72
    65
 73
     2
 40
0.4165599999999998
 49
0.2082799999999999
 74
     0
 49
-0.2082799999999999
 74
     0
  0
LTYPE
  5
45
330
5
100
AcDbSymbolTableRecord
100
AcDbLinetypeTableRecord
  2
ISO-03_霍_縺_遐_邱__
 70
     0
  3
---          ------          ---
 72
    65
 73
     2
 40
1.499999999999999
 49
0.5999999999999998
 74
     0
 49
-0.9
 74
     0
  0
LTYPE
  5
46
330
5
100
AcDbSymbolTableRecord
100
AcDbLinetypeTableRecord
  2
ISO-07_轤_邱__
 70
     0
  3
-              --              -
 72
    65
 73
     2
 40
0.1749999999999999
 49
0.025
 74
     0
 49
-0.1499999999999999
 74
     0
  0
LTYPE
  5
47
330
5
100
AcDbSymbolTableRecord
100
AcDbLinetypeTableRecord
  2
繝_繧_繝_繧_繧_繝__10
 70
     0
  3
-----------  --  --  -----------
 72
    65
 73
     6
 40
5.347222222222222
 49
3.75
 74
     0
 49
-0.2777849999999997
 74
     0
 49
0.3472150000000002
 74
     0
 49
-0.2777777777777779
 74
     0
 49
0.3472222222222221
 74
     0
 49
-0.3472222222222221
 74
     0
  0
LTYPE
  5
48
330
5
100
AcDbSymbolTableRecord
100
AcDbLinetypeTableRecord
  2
繝_繧_繝_繧_繧_繝__9
 70
     0
  3
------------  ----  ------------
 72
    65
 73
     4
 40
5.0
 49
3.75
 74
     0
 49
-0.2777849999999997
 74
     0
 49
0.6944300000000004
 74
     0
 49
-0.2777849999999997
 74
     0
  0
LTYPE
  5
49
330
5
100
AcDbSymbolTableRecord
100
AcDbLinetypeTableRecord
  2
繝_繧_繝_繧_繧_繝__8
 70
     0
  3
--------     --    --    -------
 72
    65
 73
     6
 40
1.249999999999999
 49
0.625
 74
     0
 49
-0.2082799999999999
 74
     0
 49
0.06943
 74
     0
 49
-0.13893
 74
     0
 49
0.0694299999999997
 74
     0
 49
-0.13893
 74
     0
  0
LTYPE
  5
4A
330
5
100
AcDbSymbolTableRecord
100
AcDbLinetypeTableRecord
  2
繝_繧_繝_繧_繧_繝__7
 70
     0
  3
-----    -----------    -  -----
 72
    65
 73
     6
 40
1.874999999999999
 49
0.625
 74
     0
 49
-0.2082799999999999
 74
     0
 49
0.6250000000000001
 74
     0
 49
-0.2083599999999999
 74
     0
 49
0.06943
 74
     0
 49
-0.1389299999999998
 74
     0
  0
LTYPE
  5
4B
330
5
100
AcDbSymbolTableRecord
100
AcDbLinetypeTableRecord
  2
繝_繧_繝_繧_繧_繝__5
 70
     0
  3
---           -----           --
 72
    65
 73
     2
 40
0.20828
 49
0.069425
 74
     0
 49
-0.138855
 74
     0
  0
LTYPE
  5
4C
330
5
100
AcDbSymbolTableRecord
100
AcDbLinetypeTableRecord
  2
繝_繧_繝_繧_繧_繝__4
 70
     0
  3
-------  --------------  -------
 72
    65
 73
     2
 40
1.52771
 49
1.319425
 74
     0
 49
-0.208285
 74
     0
  0
LTYPE
  5
4D
330
5
100
AcDbSymbolTableRecord
100
AcDbLinetypeTableRecord
  2
繝_繧_繝_繧_繧_繝__3
 70
     0
  3
-------   -------------   ------
 72
    65
 73
     2
 40
1.249999999999999
 49
1.041639999999999
 74
     0
 49
-0.2083599999999999
 74
     0
  0
LTYPE
  5
4E
330
5
100
AcDbSymbolTableRecord
100
AcDbLinetypeTableRecord
  2
繝_繧_繝_繧_繧_繝__2
 70
     0
  3
----------    ----    ----------
 72
    65
 73
     4
 40
0.2222222834645662
 49
0.1388888976377953
 74
     0
 49
-0.0277777952755903
 74
     0
 49
0.0277777952755903
 74
     0
 49
-0.0277777952755903
 74
     0
  0
LTYPE
  5
4F
330
5
100
AcDbSymbolTableRecord
100
AcDbLinetypeTableRecord
  2
_
 70
     0
  3
                                
 72
    65
 73
     0
 40
0.0
  0
LTYPE
  5
50
330
5
100
AcDbSymbolTableRecord
100
AcDbLinetypeTableRecord
  2
__30
 70
     0
  3
                                
 72
    65
 73
     0
 40
0.0
  0
LTYPE
  5
51
330
5
100
AcDbSymbolTableRecord
100
AcDbLinetypeTableRecord
  2
__31
 70
     0
  3
                                
 72
    65
 73
     0
 40
0.0
  0
LTYPE
  5
52
330
5
100
AcDbSymbolTableRecord
100
AcDbLinetypeTableRecord
  2
__32
 70
     0
  3
                                
 72
    65
 73
     0
 40
0.0
  0
ENDTAB
  0
TABLE
  2
LAYER
  5
2
330
0
100
AcDbSymbolTable
 70
     9
  0
LAYER
  5
10
330
2
100
AcDbSymbolTableRecord
100
AcDbLayerTableRecord
  2
0
 70
     0
 62
     7
  6
CONTINUOUS
370
    -3
390
11
  0
LAYER
  5
55
330
2
100
AcDbSymbolTableRecord
100
AcDbLayerTableRecord
  2
_0-1_荳_闊_
 70
     0
 62
     7
  6
CONTINUOUS
370
    -3
390
F
  0
LAYER
  5
56
330
2
100
AcDbSymbolTableRecord
100
AcDbLayerTableRecord
  2
_0-6__0-2_蟇_豕__ts
 70
     0
 62
     7
  6
CONTINUOUS
370
    -3
390
F
  0
LAYER
  5
57
330
2
100
AcDbSymbolTableRecord
100
AcDbLayerTableRecord
  2
ADD_LINE
 70
     0
 62
     7
  6
CONTINUOUS
370
    -3
390
F
  0
LAYER
  5
340
330
2
100
AcDbSymbolTableRecord
100
AcDbLayerTableRecord
  2
_0-5__0-4_Defpoints
 70
     0
 62
     7
  6
CONTINUOUS
370
    -3
390
F
  0
LAYER
  5
341
330
2
100
AcDbSymbolTableRecord
100
AcDbLayerTableRecord
  2
_0-7__0-2_蟇_豕__----__-_
 70
     0
 62
     7
  6
CONTINUOUS
370
    -3
390
F
  0
LAYER
  5
342
330
2
100
AcDbSymbolTableRecord
100
AcDbLayerTableRecord
  2
_0-4__0-2_蟇_豕__
 70
     0
 62
     7
  6
CONTINUOUS
370
    -3
390
F
  0
LAYER
  5
343
330
2
100
AcDbSymbolTableRecord
100
AcDbLayerTableRecord
  2
_0-2_蟇_豕__3__100__AcDbSymbolTable___70_______1____0__STYLE____5__10__100__AcDbSymbolTableRecord_
 70
     0
 62
     7
  6
CONTINUOUS
370
    -3
390
F
  0
LAYER
  5
344
330
2
100
AcDbSymbolTableRecord
100
AcDbLayerTableRecord
  2
_0-0_0
 70
     0
 62
     7
  6
CONTINUOUS
370
    -3
390
F
  0
ENDTAB
  0
TABLE
  2
STYLE
  5
3
330
0
100
AcDbSymbolTable
 70
     2
  0
STYLE
  5
12
330
3
100
AcDbSymbolTableRecord
100
AcDbTextStyleTableRecord
  2
STANDARD
 70
     0
 40
0.0
 41
1.0
 50
0.0
 71
     0
 42
0.2
  3
txt
  4
bigfont.shx
  0
STYLE
  5
54
330
3
100
AcDbSymbolTableRecord
100
AcDbTextStyleTableRecord
  2
TATEGAKI
 70
     4
 40
0.0
 41
1.0
 50
0.0
 71
     0
 42
1.0
  3
txt
  4
bigfont.shx
  0
ENDTAB
  0
TABLE
  2
VIEW
  5
6
330
0
100
AcDbSymbolTable
 70
     0
  0
ENDTAB
  0
TABLE
  2
UCS
  5
7
330
0
100
AcDbSymbolTable
 70
     0
  0
ENDTAB
  0
TABLE
  2
APPID
  5
9
330
0
100
AcDbSymbolTable
 70
     4
  0
APPID
  5
13
330
9
100
AcDbSymbolTableRecord
100
AcDbRegAppTableRecord
  2
ACAD
 70
     0
  0
APPID
  5
37C
330
9
100
AcDbSymbolTableRecord
100
AcDbRegAppTableRecord
  2
ACAD_MLEADERVER
 70
     0
  0
APPID
  5
37D
330
9
100
AcDbSymbolTableRecord
100
AcDbRegAppTableRecord
  2
ACAD_PSEXT
 70
     0
  0
APPID
  5
3E9
330
9
100
AcDbSymbolTableRecord
100
AcDbRegAppTableRecord
  2
ACAD_NAV_VCDISPLAY
 70
     0
  0
ENDTAB
  0
TABLE
  2
DIMSTYLE
  5
A
330
0
100
AcDbSymbolTable
 70
     1
100
AcDbDimStyleTable
 71
     0
  0
DIMSTYLE
105
58
330
A
100
AcDbSymbolTableRecord
100
AcDbDimStyleTableRecord
  2
Standard
 70
     0
340
12
  0
ENDTAB
  0
TABLE
  2
BLOCK_RECORD
  5
1
330
0
100
AcDbSymbolTable
 70
    17
  0
BLOCK_RECORD
  5
1D
330
1
100
AcDbSymbolTableRecord
100
AcDbBlockTableRecord
  2
*Model_Space
340
1E
  0
BLOCK_RECORD
  5
1B
330
1
100
AcDbSymbolTableRecord
100
AcDbBlockTableRecord
  2
*Paper_Space
340
1C
  0
BLOCK_RECORD
  5
5A
330
1
100
AcDbSymbolTableRecord
100
AcDbBlockTableRecord
  2
-000-_DOT
340
0
102
{BLKREFS
331
F4
331
F5
331
100
331
101
331
10C
331
10D
331
118
331
119
331
7C
331
7D
331
88
331
89
331
94
331
95
331
A0
331
A1
331
AC
331
AD
331
B8
331
B9
331
C4
331
C5
331
D0
331
D1
331
DC
331
DD
331
E8
331
E9
331
64
331
65
331
70
331
71
102
}
  0
BLOCK_RECORD
  5
60
330
1
100
AcDbSymbolTableRecord
100
AcDbBlockTableRecord
  2
-001-_D3
340
0
102
{BLKREFS
331
14B
102
}
  0
BLOCK_RECORD
  5
6C
330
1
100
AcDbSymbolTableRecord
100
AcDbBlockTableRecord
  2
-002-_D4
340
0
102
{BLKREFS
331
14C
102
}
  0
BLOCK_RECORD
  5
78
330
1
100
AcDbSymbolTableRecord
100
AcDbBlockTableRecord
  2
-003-_D5
340
0
102
{BLKREFS
331
14D
102
}
  0
BLOCK_RECORD
  5
84
330
1
100
AcDbSymbolTableRecord
100
AcDbBlockTableRecord
  2
-004-_D6
340
0
102
{BLKREFS
331
14E
102
}
  0
BLOCK_RECORD
  5
90
330
1
100
AcDbSymbolTableRecord
100
AcDbBlockTableRecord
  2
-005-_D7
340
0
102
{BLKREFS
331
14F
102
}
  0
BLOCK_RECORD
  5
9C
330
1
100
AcDbSymbolTableRecord
100
AcDbBlockTableRecord
  2
-006-_D8
340
0
102
{BLKREFS
331
150
102
}
  0
BLOCK_RECORD
  5
A8
330
1
100
AcDbSymbolTableRecord
100
AcDbBlockTableRecord
  2
-007-_D9
340
0
102
{BLKREFS
331
155
102
}
  0
BLOCK_RECORD
  5
B4
330
1
100
AcDbSymbolTableRecord
100
AcDbBlockTableRecord
  2
-008-_D11
340
0
102
{BLKREFS
331
185
102
}
  0
BLOCK_RECORD
  5
C0
330
1
100
AcDbSymbolTableRecord
100
AcDbBlockTableRecord
  2
-009-_D12
340
0
102
{BLKREFS
331
186
102
}
  0
BLOCK_RECORD
  5
CC
330
1
100
AcDbSymbolTableRecord
100
AcDbBlockTableRecord
  2
-010-_D16
340
0
102
{BLKREFS
331
1D9
102
}
  0
BLOCK_RECORD
  5
D8
330
1
100
AcDbSymbolTableRecord
100
AcDbBlockTableRecord
  2
-011-_D21
340
0
102
{BLKREFS
331
1F5
102
}
  0
BLOCK_RECORD
  5
E4
330
1
100
AcDbSymbolTableRecord
100
AcDbBlockTableRecord
  2
-012-_D26
340
0
102
{BLKREFS
331
204
102
}
  0
BLOCK_RECORD
  5
F0
330
1
100
AcDbSymbolTableRecord
100
AcDbBlockTableRecord
  2
-013-_D27
340
0
102
{BLKREFS
331
205
102
}
  0
BLOCK_RECORD
  5
FC
330
1
100
AcDbSymbolTableRecord
100
AcDbBlockTableRecord
  2
-014-_D29
340
0
102
{BLKREFS
331
2C9
102
}
  0
BLOCK_RECORD
  5
108
330
1
100
AcDbSymbolTableRecord
100
AcDbBlockTableRecord
  2
-015-_D30
340
0
102
{BLKREFS
331
2CA
102
}
  0
BLOCK_RECORD
  5
114
330
1
100
AcDbSymbolTableRecord
100
AcDbBlockTableRecord
  2
-016-_D31
340
0
102
{BLKREFS
331
2CB
102
}
  0
ENDTAB
  0
ENDSEC
  0
SECTION
  2
BLOCKS
  0
BLOCK
  5
359
330
1D
100
AcDbEntity
  8
0
100
AcDbBlockBegin
  2
*Model_Space
 70
     0
 10
0.0
 20
0.0
 30
0.0
  3
*Model_Space
  1
Acad:XRef
  0
ENDBLK
  5
35A
330
1D
100
AcDbEntity
  8
0
100
AcDbBlockEnd
  0
BLOCK
  5
357
330
1B
100
AcDbEntity
 67
     1
  8
0
100
AcDbBlockBegin
  2
*Paper_Space
 70
     0
 10
0.0
 20
0.0
 30
0.0
  3
*Paper_Space
  1
Acad:XRef
  0
ENDBLK
  5
358
330
1B
100
AcDbEntity
 67
     1
  8
0
100
AcDbBlockEnd
  0
BLOCK
  5
59
330
5A
100
AcDbEntity
  8
0
100
AcDbBlockBegin
  2
-000-_DOT
 70
     0
 10
0.0
 20
0.0
 30
0.0
  3
-000-_DOT
  1

  0
CIRCLE
  5
5B
330
5A
100
AcDbEntity
  8
_0-0_0
  6
Continuous
 62
     7
100
AcDbCircle
 10
0.0
 20
0.0
 30
0.0
 40
0.25
  0
CIRCLE
  5
5C
330
5A
100
AcDbEntity
  8
_0-0_0
  6
Continuous
 62
     7
100
AcDbCircle
 10
0.0
 20
0.0
 30
0.0
 40
0.25
  0
LINE
  5
5D
330
5A
100
AcDbEntity
  8
_0-0_0
  6
Continuous
 62
     7
100
AcDbLine
 10
-0.5
 20
0.0
 30
0.0
 11
-1.0
 21
0.0
 31
0.0
  0
ENDBLK
  5
5E
330
5A
100
AcDbEntity
  8
0
100
AcDbBlockEnd
  0
BLOCK
  5
5F
330
60
100
AcDbEntity
  8
0
100
AcDbBlockBegin
  2
-001-_D3
 70
     0
 10
0.0
 20
0.0
 30
0.0
  3
-001-_D3
  1

  0
LINE
  5
61
330
60
100
AcDbEntity
  8
_0-2_蟇_豕__3__100__AcDbSymbolTable___70_______1____0__STYLE____5__10__100__AcDbSymbolTableRecord_
  6
Continuous
 62
     7
100
AcDbLine
 10
-1381.905532738527
 20
305.8039100340865
 30
0.0
 11
-1381.905532738527
 21
447.8039100340865
 31
0.0
  0
LINE
  5
62
330
60
100
AcDbEntity
  8
_0-4__0-2_蟇_豕__
  6
Continuous
 62
     7
100
AcDbLine
 10
418.0944672614731
 20
305.8039100340865
 30
0.0
 11
418.0944672614731
 21
447.8039100340865
 31
0.0
  0
LINE
  5
63
330
60
100
AcDbEntity
  8
_0-4__0-2_蟇_豕__
  6
Continuous
 62
     7
100
AcDbLine
 10
-1374.898208519777
 20
437.8039100340865
 30
0.0
 11
411.0871430427231
 21
437.8039100340865
 31
0.0
  0
INSERT
  5
64
330
60
100
AcDbEntity
  8
_0-4__0-2_蟇_豕__
100
AcDbBlockReference
  2
-000-_DOT
 10
-1381.905532738527
 20
437.8039100340865
 30
0.0
 41
7.00732421875
 42
7.00732421875
 50
180.0
  0
INSERT
  5
65
330
60
100
AcDbEntity
  8
_0-4__0-2_蟇_豕__
100
AcDbBlockReference
  2
-000-_DOT
 10
418.0944672614731
 20
437.8039100340865
 30
0.0
 41
7.00732421875
 42
7.00732421875
  0
TEXT
  5
66
330
60
100
AcDbEntity
  8
_0-2_蟇_豕__3__100__AcDbSymbolTable___70_______1____0__STYLE____5__10__100__AcDbSymbolTableRecord_
 62
     7
100
AcDbText
 10
-503.5682931551934
 20
440.8039100340864
 30
0.0
 40
21.66276041666666
  1
1800
100
AcDbText
  0
POINT
  5
67
330
60
100
AcDbEntity
  8
_0-5__0-4_Defpoints
 62
     7
100
AcDbPoint
 10
-1381.905532738527
 20
297.8039100340865
 30
0.0
  0
POINT
  5
68
330
60
100
AcDbEntity
  8
_0-5__0-4_Defpoints
 62
     7
100
AcDbPoint
 10
418.0944672614731
 20
297.8039100340865
 30
0.0
  0
POINT
  5
69
330
60
100
AcDbEntity
  8
_0-5__0-4_Defpoints
 62
     7
100
AcDbPoint
 10
418.0944672614731
 20
437.8039100340865
 30
0.0
  0
ENDBLK
  5
6A
330
60
100
AcDbEntity
  8
0
100
AcDbBlockEnd
  0
BLOCK
  5
6B
330
6C
100
AcDbEntity
  8
0
100
AcDbBlockBegin
  2
-002-_D4
 70
     0
 10
0.0
 20
0.0
 30
0.0
  3
-002-_D4
  1

  0
LINE
  5
6D
330
6C
100
AcDbEntity
  8
_0-2_蟇_豕__3__100__AcDbSymbolTable___70_______1____0__STYLE____5__10__100__AcDbSymbolTableRecord_
  6
Continuous
 62
     7
100
AcDbLine
 10
590.7833210630593
 20
-667.0
 30
0.0
 11
654.7833210630593
 21
-667.0
 31
0.0
  0
LINE
  5
6E
330
6C
100
AcDbEntity
  8
_0-6__0-2_蟇_豕__ts
  6
Continuous
 62
     7
100
AcDbLine
 10
590.7833210630593
 20
-367.0000000000001
 30
0.0
 11
654.7833210630593
 21
-367.0000000000001
 31
0.0
  0
LINE
  5
6F
330
6C
100
AcDbEntity
  8
_0-6__0-2_蟇_豕__ts
  6
Continuous
 62
     7
100
AcDbLine
 10
644.7833210630594
 20
-659.9926757812499
 30
0.0
 11
644.7833210630594
 21
-374.0073242187501
 31
0.0
  0
INSERT
  5
70
330
6C
100
AcDbEntity
  8
_0-4__0-2_蟇_豕__
100
AcDbBlockReference
  2
-000-_DOT
 10
644.7833210630594
 20
-667.0
 30
0.0
 41
7.00732421875
 42
7.00732421875
 50
270.0
  0
INSERT
  5
71
330
6C
100
AcDbEntity
  8
_0-2_蟇_豕__3__100__AcDbSymbolTable___70_______1____0__STYLE____5__10__100__AcDbSymbolTableRecord_
100
AcDbBlockReference
  2
-000-_DOT
 10
644.7833210630594
 20
-367.0000000000001
 30
0.0
 41
7.00732421875
 42
7.00732421875
 50
90.0
  0
TEXT
  5
72
330
6C
100
AcDbEntity
  8
_0-2_蟇_豕__3__100__AcDbSymbolTable___70_______1____0__STYLE____5__10__100__AcDbSymbolTableRecord_
 62
     7
100
AcDbText
 10
641.7833210630593
 20
-533.2470703124999
 30
0.0
 40
21.66276041666666
  1
300
 50
90.0
100
AcDbText
  0
POINT
  5
73
330
6C
100
AcDbEntity
  8
_0-5__0-4_Defpoints
 62
     7
100
AcDbPoint
 10
582.7833210630593
 20
-667.0
 30
0.0
  0
POINT
  5
74
330
6C
100
AcDbEntity
  8
_0-5__0-4_Defpoints
 62
     7
100
AcDbPoint
 10
582.7833210630593
 20
-367.0000000000001
 30
0.0
  0
POINT
  5
75
330
6C
100
AcDbEntity
  8
_0-5__0-4_Defpoints
 62
     7
100
AcDbPoint
 10
644.7833210630594
 20
-367.0000000000001
 30
0.0
  0
ENDBLK
  5
76
330
6C
100
AcDbEntity
  8
0
100
AcDbBlockEnd
  0
BLOCK
  5
77
330
78
100
AcDbEntity
  8
0
100
AcDbBlockBegin
  2
-003-_D5
 70
     0
 10
0.0
 20
0.0
 30
0.0
  3
-003-_D5
  1

  0
LINE
  5
79
330
78
100
AcDbEntity
  8
_0-6__0-2_蟇_豕__ts
  6
Continuous
 62
     7
100
AcDbLine
 10
-1206.879095511806
 20
-813.0395000000001
 30
0.0
 11
-1206.879095511806
 21
-928.9605000000001
 31
0.0
  0
LINE
  5
7A
330
78
100
AcDbEntity
  8
_0-6__0-2_蟇_豕__ts
  6
Continuous
 62
     7
100
AcDbLine
 10
243.1209044881938
 20
-813.0395000000001
 30
0.0
 11
243.1209044881938
 21
-928.9605000000001
 31
0.0
  0
LINE
  5
7B
330
78
100
AcDbEntity
  8
_0-4__0-2_蟇_豕__
  6
Continuous
 62
     7
100
AcDbLine
 10
-1199.871771293056
 20
-918.9605000000002
 30
0.0
 11
236.1135802694438
 21
-918.9605000000002
 31
0.0
  0
INSERT
  5
7C
330
78
100
AcDbEntity
  8
_0-6__0-2_蟇_豕__ts
100
AcDbBlockReference
  2
-000-_DOT
 10
-1206.879095511806
 20
-918.9605000000002
 30
0.0
 41
7.00732421875
 42
7.00732421875
 50
180.0
  0
INSERT
  5
7D
330
78
100
AcDbEntity
  8
_0-4__0-2_蟇_豕__
100
AcDbBlockReference
  2
-000-_DOT
 10
243.1209044881938
 20
-918.9605000000002
 30
0.0
 41
7.00732421875
 42
7.00732421875
  0
TEXT
  5
7E
330
78
100
AcDbEntity
  8
_0-6__0-2_蟇_豕__ts
 62
     7
100
AcDbText
 10
-488.5778559284733
 20
-910.8218802083335
 30
0.0
 40
21.66276041666666
  1
1450
100
AcDbText
  0
POINT
  5
7F
330
78
100
AcDbEntity
  8
_0-5__0-4_Defpoints
 62
     7
100
AcDbPoint
 10
-1206.879095511806
 20
-805.0395000000001
 30
0.0
  0
POINT
  5
80
330
78
100
AcDbEntity
  8
_0-5__0-4_Defpoints
 62
     7
100
AcDbPoint
 10
243.1209044881938
 20
-805.0395000000001
 30
0.0
  0
POINT
  5
81
330
78
100
AcDbEntity
  8
_0-5__0-4_Defpoints
 62
     7
100
AcDbPoint
 10
243.1209044881938
 20
-918.9605000000002
 30
0.0
  0
ENDBLK
  5
82
330
78
100
AcDbEntity
  8
0
100
AcDbBlockEnd
  0
BLOCK
  5
83
330
84
100
AcDbEntity
  8
0
100
AcDbBlockBegin
  2
-004-_D6
 70
     0
 10
0.0
 20
0.0
 30
0.0
  3
-004-_D6
  1

  0
LINE
  5
85
330
84
100
AcDbEntity
  8
_0-6__0-2_蟇_豕__ts
  6
Continuous
 62
     7
100
AcDbLine
 10
-1321.905532738527
 20
296.3779372213126
 30
0.0
 11
-1321.905532738527
 21
371.1338116639379
 31
0.0
  0
LINE
  5
86
330
84
100
AcDbEntity
  8
_0-6__0-2_蟇_豕__ts
  6
Continuous
 62
     7
100
AcDbLine
 10
-1381.905532738527
 20
296.3779372213126
 30
0.0
 11
-1381.905532738527
 21
371.1338116639379
 31
0.0
  0
LINE
  5
87
330
84
100
AcDbEntity
  8
_0-6__0-2_蟇_豕__ts
  6
Continuous
 62
     7
100
AcDbLine
 10
-1328.912856957277
 20
361.1338116639379
 30
0.0
 11
-1374.898208519777
 21
361.1338116639379
 31
0.0
  0
INSERT
  5
88
330
84
100
AcDbEntity
  8
_0-6__0-2_蟇_豕__ts
100
AcDbBlockReference
  2
-000-_DOT
 10
-1321.905532738527
 20
361.1338116639379
 30
0.0
 41
7.00732421875
 42
7.00732421875
  0
INSERT
  5
89
330
84
100
AcDbEntity
  8
_0-6__0-2_蟇_豕__ts
100
AcDbBlockReference
  2
-000-_DOT
 10
-1381.905532738527
 20
361.1338116639379
 30
0.0
 41
7.00732421875
 42
7.00732421875
 50
180.0
  0
TEXT
  5
8A
330
84
100
AcDbEntity
  8
_0-6__0-2_蟇_豕__ts
 62
     7
100
AcDbText
 10
-1362.967677828548
 20
367.2724314556047
 30
0.0
 40
21.66276041666666
  1
60
100
AcDbText
  0
POINT
  5
8B
330
84
100
AcDbEntity
  8
_0-5__0-4_Defpoints
 62
     7
100
AcDbPoint
 10
-1321.905532738527
 20
288.3779372213126
 30
0.0
  0
POINT
  5
8C
330
84
100
AcDbEntity
  8
_0-5__0-4_Defpoints
 62
     7
100
AcDbPoint
 10
-1381.905532738527
 20
288.3779372213126
 30
0.0
  0
POINT
  5
8D
330
84
100
AcDbEntity
  8
_0-5__0-4_Defpoints
 62
     7
100
AcDbPoint
 10
-1381.905532738527
 20
361.1338116639379
 30
0.0
  0
ENDBLK
  5
8E
330
84
100
AcDbEntity
  8
0
100
AcDbBlockEnd
  0
BLOCK
  5
8F
330
90
100
AcDbEntity
  8
0
100
AcDbBlockBegin
  2
-005-_D7
 70
     0
 10
0.0
 20
0.0
 30
0.0
  3
-005-_D7
  1

  0
LINE
  5
91
330
90
100
AcDbEntity
  8
_0-6__0-2_蟇_豕__ts
  6
Continuous
 62
     7
100
AcDbLine
 10
358.0944672614731
 20
300.7180472706349
 30
0.0
 11
358.094467261473
 21
371.1338116639379
 31
0.0
  0
LINE
  5
92
330
90
100
AcDbEntity
  8
_0-6__0-2_蟇_豕__ts
  6
Continuous
 62
     7
100
AcDbLine
 10
-1321.905532738527
 20
296.3779372213126
 30
0.0
 11
-1321.905532738527
 21
371.1338116639379
 31
0.0
  0
LINE
  5
93
330
90
100
AcDbEntity
  8
_0-6__0-2_蟇_豕__ts
  6
Continuous
 62
     7
100
AcDbLine
 10
351.087143042723
 20
361.1338116639379
 30
0.0
 11
-1314.898208519777
 21
361.1338116639379
 31
0.0
  0
INSERT
  5
94
330
90
100
AcDbEntity
  8
_0-6__0-2_蟇_豕__ts
100
AcDbBlockReference
  2
-000-_DOT
 10
358.094467261473
 20
361.1338116639379
 30
0.0
 41
7.00732421875
 42
7.00732421875
  0
INSERT
  5
95
330
90
100
AcDbEntity
  8
_0-6__0-2_蟇_豕__ts
100
AcDbBlockReference
  2
-000-_DOT
 10
-1321.905532738527
 20
361.1338116639379
 30
0.0
 41
7.00732421875
 42
7.00732421875
 50
180.0
  0
TEXT
  5
96
330
90
100
AcDbEntity
  8
_0-6__0-2_蟇_豕__ts
 62
     7
100
AcDbText
 10
-503.5682931551933
 20
364.1338116639379
 30
0.0
 40
21.66276041666666
  1
1680
100
AcDbText
  0
POINT
  5
97
330
90
100
AcDbEntity
  8
_0-5__0-4_Defpoints
 62
     7
100
AcDbPoint
 10
358.0944672614731
 20
292.7180472706349
 30
0.0
  0
POINT
  5
98
330
90
100
AcDbEntity
  8
_0-5__0-4_Defpoints
 62
     7
100
AcDbPoint
 10
-1321.905532738527
 20
288.3779372213126
 30
0.0
  0
POINT
  5
99
330
90
100
AcDbEntity
  8
_0-5__0-4_Defpoints
 62
     7
100
AcDbPoint
 10
-1321.905532738527
 20
361.1338116639379
 30
0.0
  0
ENDBLK
  5
9A
330
90
100
AcDbEntity
  8
0
100
AcDbBlockEnd
  0
BLOCK
  5
9B
330
9C
100
AcDbEntity
  8
0
100
AcDbBlockBegin
  2
-006-_D8
 70
     0
 10
0.0
 20
0.0
 30
0.0
  3
-006-_D8
  1

  0
LINE
  5
9D
330
9C
100
AcDbEntity
  8
_0-6__0-2_蟇_豕__ts
  6
Continuous
 62
     7
100
AcDbLine
 10
418.0944672614729
 20
296.3779372213126
 30
0.0
 11
418.0944672614729
 21
371.1338116639379
 31
0.0
  0
LINE
  5
9E
330
9C
100
AcDbEntity
  8
_0-6__0-2_蟇_豕__ts
  6
Continuous
 62
     7
100
AcDbLine
 10
358.0944672614731
 20
300.7180472706349
 30
0.0
 11
358.0944672614731
 21
371.1338116639379
 31
0.0
  0
LINE
  5
9F
330
9C
100
AcDbEntity
  8
_0-6__0-2_蟇_豕__ts
  6
Continuous
 62
     7
100
AcDbLine
 10
411.0871430427229
 20
361.1338116639379
 30
0.0
 11
365.1017914802231
 21
361.1338116639379
 31
0.0
  0
INSERT
  5
A0
330
9C
100
AcDbEntity
  8
_0-6__0-2_蟇_豕__ts
100
AcDbBlockReference
  2
-000-_DOT
 10
418.0944672614729
 20
361.1338116639379
 30
0.0
 41
7.00732421875
 42
7.00732421875
  0
INSERT
  5
A1
330
9C
100
AcDbEntity
  8
_0-6__0-2_蟇_豕__ts
100
AcDbBlockReference
  2
-000-_DOT
 10
358.0944672614731
 20
361.1338116639379
 30
0.0
 41
7.00732421875
 42
7.00732421875
 50
180.0
  0
TEXT
  5
A2
330
9C
100
AcDbEntity
  8
_0-6__0-2_蟇_豕__ts
 62
     7
100
AcDbText
 10
376.3909333897313
 20
367.2724314556047
 30
0.0
 40
21.66276041666666
  1
60
100
AcDbText
  0
POINT
  5
A3
330
9C
100
AcDbEntity
  8
_0-5__0-4_Defpoints
 62
     7
100
AcDbPoint
 10
418.0944672614729
 20
288.3779372213126
 30
0.0
  0
POINT
  5
A4
330
9C
100
AcDbEntity
  8
_0-5__0-4_Defpoints
 62
     7
100
AcDbPoint
 10
358.0944672614731
 20
292.7180472706349
 30
0.0
  0
POINT
  5
A5
330
9C
100
AcDbEntity
  8
_0-5__0-4_Defpoints
 62
     7
100
AcDbPoint
 10
358.0944672614731
 20
361.1338116639379
 30
0.0
  0
ENDBLK
  5
A6
330
9C
100
AcDbEntity
  8
0
100
AcDbBlockEnd
  0
BLOCK
  5
A7
330
A8
100
AcDbEntity
  8
0
100
AcDbBlockBegin
  2
-007-_D9
 70
     0
 10
0.0
 20
0.0
 30
0.0
  3
-007-_D9
  1

  0
LINE
  5
A9
330
A8
100
AcDbEntity
  8
_0-6__0-2_蟇_豕__ts
  6
Continuous
 62
     7
100
AcDbLine
 10
1228.516746686317
 20
-805.0394999999998
 30
0.0
 11
1228.516746686317
 21
-928.9604999999999
 31
0.0
  0
LINE
  5
AA
330
A8
100
AcDbEntity
  8
_0-6__0-2_蟇_豕__ts
  6
Continuous
 62
     7
100
AcDbLine
 10
1828.516746686317
 20
-805.0394999999998
 30
0.0
 11
1828.516746686317
 21
-928.9604999999999
 31
0.0
  0
LINE
  5
AB
330
A8
100
AcDbEntity
  8
_0-6__0-2_蟇_豕__ts
  6
Continuous
 62
     7
100
AcDbLine
 10
1235.524070905067
 20
-918.9604999999998
 30
0.0
 11
1821.509422467567
 21
-918.9604999999998
 31
0.0
  0
INSERT
  5
AC
330
A8
100
AcDbEntity
  8
_0-6__0-2_蟇_豕__ts
100
AcDbBlockReference
  2
-000-_DOT
 10
1228.516746686317
 20
-918.9604999999998
 30
0.0
 41
7.00732421875
 42
7.00732421875
 50
180.0
  0
INSERT
  5
AD
330
A8
100
AcDbEntity
  8
_0-6__0-2_蟇_豕__ts
100
AcDbBlockReference
  2
-000-_DOT
 10
1828.516746686317
 20
-918.9604999999998
 30
0.0
 41
7.00732421875
 42
7.00732421875
  0
TEXT
  5
AE
330
A8
100
AcDbEntity
  8
_0-6__0-2_蟇_豕__ts
 62
     7
100
AcDbText
 10
1512.269676373817
 20
-913.9604999999999
 30
0.0
 40
21.66276041666666
  1
600
100
AcDbText
  0
POINT
  5
AF
330
A8
100
AcDbEntity
  8
_0-5__0-4_Defpoints
 62
     7
100
AcDbPoint
 10
1228.516746686317
 20
-797.0394999999999
 30
0.0
  0
POINT
  5
B0
330
A8
100
AcDbEntity
  8
_0-5__0-4_Defpoints
 62
     7
100
AcDbPoint
 10
1828.516746686317
 20
-797.0394999999999
 30
0.0
  0
POINT
  5
B1
330
A8
100
AcDbEntity
  8
_0-5__0-4_Defpoints
 62
     7
100
AcDbPoint
 10
1828.516746686317
 20
-918.9604999999998
 30
0.0
  0
ENDBLK
  5
B2
330
A8
100
AcDbEntity
  8
0
100
AcDbBlockEnd
  0
BLOCK
  5
B3
330
B4
100
AcDbEntity
  8
0
100
AcDbBlockBegin
  2
-008-_D11
 70
     0
 10
0.0
 20
0.0
 30
0.0
  3
-008-_D11
  1

  0
LINE
  5
B5
330
B4
100
AcDbEntity
  8
_0-6__0-2_蟇_豕__ts
  6
Continuous
 62
     7
100
AcDbLine
 10
418.2055783725846
 20
1245.759851947327
 30
0.0
 11
418.2055783725846
 21
1352.761606158664
 31
0.0
  0
LINE
  5
B6
330
B4
100
AcDbEntity
  8
_0-6__0-2_蟇_豕__ts
  6
Continuous
 62
     7
100
AcDbLine
 10
-1381.794421627416
 20
1245.759851947327
 30
0.0
 11
-1381.794421627416
 21
1352.761606158664
 31
0.0
  0
LINE
  5
B7
330
B4
100
AcDbEntity
  8
_0-4__0-2_蟇_豕__
  6
Continuous
 62
     7
100
AcDbLine
 10
411.1982541538345
 20
1342.761606158664
 30
0.0
 11
-1374.787097408666
 21
1342.761606158664
 31
0.0
  0
INSERT
  5
B8
330
B4
100
AcDbEntity
  8
_0-6__0-2_蟇_豕__ts
100
AcDbBlockReference
  2
-000-_DOT
 10
418.2055783725846
 20
1342.761606158664
 30
0.0
 41
7.00732421875
 42
7.00732421875
  0
INSERT
  5
B9
330
B4
100
AcDbEntity
  8
_0-7__0-2_蟇_豕__----__-_
100
AcDbBlockReference
  2
-000-_DOT
 10
-1381.794421627416
 20
1342.761606158664
 30
0.0
 41
7.00732421875
 42
7.00732421875
 50
180.0
  0
TEXT
  5
BA
330
B4
100
AcDbEntity
  8
_0-6__0-2_蟇_豕__ts
 62
     7
100
AcDbText
 10
-503.4571820440824
 20
1345.761606158665
 30
0.0
 40
21.66276041666666
  1
1800
100
AcDbText
  0
POINT
  5
BB
330
B4
100
AcDbEntity
  8
_0-5__0-4_Defpoints
 62
     7
100
AcDbPoint
 10
418.2055783725846
 20
1237.759851947327
 30
0.0
  0
POINT
  5
BC
330
B4
100
AcDbEntity
  8
_0-5__0-4_Defpoints
 62
     7
100
AcDbPoint
 10
-1381.794421627416
 20
1237.759851947327
 30
0.0
  0
POINT
  5
BD
330
B4
100
AcDbEntity
  8
_0-5__0-4_Defpoints
 62
     7
100
AcDbPoint
 10
-1381.794421627416
 20
1342.761606158664
 30
0.0
  0
ENDBLK
  5
BE
330
B4
100
AcDbEntity
  8
0
100
AcDbBlockEnd
  0
BLOCK
  5
BF
330
C0
100
AcDbEntity
  8
0
100
AcDbBlockBegin
  2
-009-_D12
 70
     0
 10
0.0
 20
0.0
 30
0.0
  3
-009-_D12
  1

  0
LINE
  5
C1
330
C0
100
AcDbEntity
  8
_0-6__0-2_蟇_豕__ts
  6
Continuous
 62
     7
100
AcDbLine
 10
391.2055783725849
 20
818.0094133944917
 30
0.0
 11
594.26503464442
 21
818.0094133944917
 31
0.0
  0
LINE
  5
C2
330
C0
100
AcDbEntity
  8
_0-6__0-2_蟇_豕__ts
  6
Continuous
 62
     7
100
AcDbLine
 10
391.2055783725849
 20
1204.009413394492
 30
0.0
 11
594.26503464442
 21
1204.009413394492
 31
0.0
  0
LINE
  5
C3
330
C0
100
AcDbEntity
  8
_0-6__0-2_蟇_豕__ts
  6
Continuous
 62
     7
100
AcDbLine
 10
584.2650346444201
 20
825.0167376132417
 30
0.0
 11
584.2650346444201
 21
1197.002089175742
 31
0.0
  0
INSERT
  5
C4
330
C0
100
AcDbEntity
  8
_0-6__0-2_蟇_豕__ts
100
AcDbBlockReference
  2
-000-_DOT
 10
584.2650346444201
 20
818.0094133944917
 30
0.0
 41
7.00732421875
 42
7.00732421875
 50
270.0
  0
INSERT
  5
C5
330
C0
100
AcDbEntity
  8
_0-6__0-2_蟇_豕__ts
100
AcDbBlockReference
  2
-000-_DOT
 10
584.2650346444201
 20
1204.009413394492
 30
0.0
 41
7.00732421875
 42
7.00732421875
 50
90.0
  0
TEXT
  5
C6
330
C0
100
AcDbEntity
  8
_0-6__0-2_蟇_豕__ts
 62
     7
100
AcDbText
 10
581.26503464442
 20
994.762343081992
 30
0.0
 40
21.66276041666666
  1
386
 50
90.0
100
AcDbText
  0
POINT
  5
C7
330
C0
100
AcDbEntity
  8
_0-5__0-4_Defpoints
 62
     7
100
AcDbPoint
 10
383.2055783725849
 20
818.0094133944917
 30
0.0
  0
POINT
  5
C8
330
C0
100
AcDbEntity
  8
_0-5__0-4_Defpoints
 62
     7
100
AcDbPoint
 10
383.2055783725849
 20
1204.009413394492
 30
0.0
  0
POINT
  5
C9
330
C0
100
AcDbEntity
  8
_0-5__0-4_Defpoints
 62
     7
100
AcDbPoint
 10
584.2650346444201
 20
1204.009413394492
 30
0.0
  0
ENDBLK
  5
CA
330
C0
100
AcDbEntity
  8
0
100
AcDbBlockEnd
  0
BLOCK
  5
CB
330
CC
100
AcDbEntity
  8
0
100
AcDbBlockBegin
  2
-010-_D16
 70
     0
 10
0.0
 20
0.0
 30
0.0
  3
-010-_D16
  1

  0
LINE
  5
CD
330
CC
100
AcDbEntity
  8
_0-6__0-2_蟇_豕__ts
  6
Continuous
 62
     7
100
AcDbLine
 10
-1506.879095511806
 20
-805.0395000000001
 30
0.0
 11
-1506.879095511806
 21
-928.9605000000001
 31
0.0
  0
LINE
  5
CE
330
CC
100
AcDbEntity
  8
_0-6__0-2_蟇_豕__ts
  6
Continuous
 62
     7
100
AcDbLine
 10
-1206.879095511806
 20
-805.0395000000001
 30
0.0
 11
-1206.879095511806
 21
-928.9605000000001
 31
0.0
  0
LINE
  5
CF
330
CC
100
AcDbEntity
  8
_0-6__0-2_蟇_豕__ts
  6
Continuous
 62
     7
100
AcDbLine
 10
-1499.871771293056
 20
-918.9605000000002
 30
0.0
 11
-1213.886419730556
 21
-918.9605000000002
 31
0.0
  0
INSERT
  5
D0
330
CC
100
AcDbEntity
  8
_0-6__0-2_蟇_豕__ts
100
AcDbBlockReference
  2
-000-_DOT
 10
-1506.879095511806
 20
-918.9605000000002
 30
0.0
 41
7.00732421875
 42
7.00732421875
 50
180.0
  0
INSERT
  5
D1
330
CC
100
AcDbEntity
  8
_0-6__0-2_蟇_豕__ts
100
AcDbBlockReference
  2
-000-_DOT
 10
-1206.879095511806
 20
-918.9605000000002
 30
0.0
 41
7.00732421875
 42
7.00732421875
  0
TEXT
  5
D2
330
CC
100
AcDbEntity
  8
_0-6__0-2_蟇_豕__ts
 62
     7
100
AcDbText
 10
-1370.030165824306
 20
-910.8218802083335
 30
0.0
 40
21.66276041666666
  1
300
100
AcDbText
  0
POINT
  5
D3
330
CC
100
AcDbEntity
  8
_0-5__0-4_Defpoints
 62
     7
100
AcDbPoint
 10
-1506.879095511806
 20
-797.0395
 30
0.0
  0
POINT
  5
D4
330
CC
100
AcDbEntity
  8
_0-5__0-4_Defpoints
 62
     7
100
AcDbPoint
 10
-1206.879095511806
 20
-797.0395
 30
0.0
  0
POINT
  5
D5
330
CC
100
AcDbEntity
  8
_0-5__0-4_Defpoints
 62
     7
100
AcDbPoint
 10
-1206.879095511806
 20
-918.9605000000002
 30
0.0
  0
ENDBLK
  5
D6
330
CC
100
AcDbEntity
  8
0
100
AcDbBlockEnd
  0
BLOCK
  5
D7
330
D8
100
AcDbEntity
  8
0
100
AcDbBlockBegin
  2
-011-_D21
 70
     0
 10
0.0
 20
0.0
 30
0.0
  3
-011-_D21
  1

  0
LINE
  5
D9
330
D8
100
AcDbEntity
  8
_0-6__0-2_蟇_豕__ts
  6
Continuous
 62
     7
100
AcDbLine
 10
243.1209044881938
 20
-805.0395000000001
 30
0.0
 11
243.1209044881938
 21
-928.9605000000001
 31
0.0
  0
LINE
  5
DA
330
D8
100
AcDbEntity
  8
_0-6__0-2_蟇_豕__ts
  6
Continuous
 62
     7
100
AcDbLine
 10
543.1209044881935
 20
-805.0395000000001
 30
0.0
 11
543.1209044881935
 21
-928.9605000000001
 31
0.0
  0
LINE
  5
DB
330
D8
100
AcDbEntity
  8
_0-6__0-2_蟇_豕__ts
  6
Continuous
 62
     7
100
AcDbLine
 10
250.1282287069438
 20
-918.9605000000002
 30
0.0
 11
536.1135802694435
 21
-918.9605000000002
 31
0.0
  0
INSERT
  5
DC
330
D8
100
AcDbEntity
  8
_0-6__0-2_蟇_豕__ts
100
AcDbBlockReference
  2
-000-_DOT
 10
243.1209044881938
 20
-918.9605000000002
 30
0.0
 41
7.00732421875
 42
7.00732421875
 50
180.0
  0
INSERT
  5
DD
330
D8
100
AcDbEntity
  8
_0-6__0-2_蟇_豕__ts
100
AcDbBlockReference
  2
-000-_DOT
 10
543.1209044881935
 20
-918.9605000000002
 30
0.0
 41
7.00732421875
 42
7.00732421875
  0
TEXT
  5
DE
330
D8
100
AcDbEntity
  8
_0-6__0-2_蟇_豕__ts
 62
     7
100
AcDbText
 10
379.9698341756936
 20
-910.8218802083335
 30
0.0
 40
21.66276041666666
  1
300
100
AcDbText
  0
POINT
  5
DF
330
D8
100
AcDbEntity
  8
_0-5__0-4_Defpoints
 62
     7
100
AcDbPoint
 10
243.1209044881938
 20
-797.0395
 30
0.0
  0
POINT
  5
E0
330
D8
100
AcDbEntity
  8
_0-5__0-4_Defpoints
 62
     7
100
AcDbPoint
 10
543.1209044881935
 20
-797.0395
 30
0.0
  0
POINT
  5
E1
330
D8
100
AcDbEntity
  8
_0-5__0-4_Defpoints
 62
     7
100
AcDbPoint
 10
543.1209044881935
 20
-918.9605000000002
 30
0.0
  0
ENDBLK
  5
E2
330
D8
100
AcDbEntity
  8
0
100
AcDbBlockEnd
  0
BLOCK
  5
E3
330
E4
100
AcDbEntity
  8
0
100
AcDbBlockBegin
  2
-012-_D26
 70
     0
 10
0.0
 20
0.0
 30
0.0
  3
-012-_D26
  1

  0
LINE
  5
E5
330
E4
100
AcDbEntity
  8
_0-6__0-2_蟇_豕__ts
  6
Continuous
 62
     7
100
AcDbLine
 10
1393.516746686317
 20
-423.6216877970896
 30
0.0
 11
1393.516746686317
 21
-500.0649553912692
 31
0.0
  0
LINE
  5
E6
330
E4
100
AcDbEntity
  8
_0-6__0-2_蟇_豕__ts
  6
Continuous
 62
     7
100
AcDbLine
 10
1663.516746686317
 20
-423.6216877970896
 30
0.0
 11
1663.516746686317
 21
-500.0649553912692
 31
0.0
  0
LINE
  5
E7
330
E4
100
AcDbEntity
  8
_0-6__0-2_蟇_豕__ts
  6
Continuous
 62
     7
100
AcDbLine
 10
1400.524070905067
 20
-490.0649553912693
 30
0.0
 11
1656.509422467567
 21
-490.0649553912693
 31
0.0
  0
INSERT
  5
E8
330
E4
100
AcDbEntity
  8
_0-6__0-2_蟇_豕__ts
100
AcDbBlockReference
  2
-000-_DOT
 10
1393.516746686317
 20
-490.0649553912693
 30
0.0
 41
7.00732421875
 42
7.00732421875
 50
180.0
  0
INSERT
  5
E9
330
E4
100
AcDbEntity
  8
_0-6__0-2_蟇_豕__ts
100
AcDbBlockReference
  2
-000-_DOT
 10
1663.516746686317
 20
-490.0649553912693
 30
0.0
 41
7.00732421875
 42
7.00732421875
  0
TEXT
  5
EA
330
E4
100
AcDbEntity
  8
_0-6__0-2_蟇_豕__ts
 62
     7
100
AcDbText
 10
1510.238792584754
 20
-487.0649553912692
 30
0.0
 40
24.37060546875
  1
270
100
AcDbText
  0
POINT
  5
EB
330
E4
100
AcDbEntity
  8
_0-5__0-4_Defpoints
 62
     7
100
AcDbPoint
 10
1393.516746686317
 20
-415.6216877970896
 30
0.0
  0
POINT
  5
EC
330
E4
100
AcDbEntity
  8
_0-5__0-4_Defpoints
 62
     7
100
AcDbPoint
 10
1663.516746686317
 20
-415.6216877970896
 30
0.0
  0
POINT
  5
ED
330
E4
100
AcDbEntity
  8
_0-5__0-4_Defpoints
 62
     7
100
AcDbPoint
 10
1663.516746686317
 20
-490.0649553912693
 30
0.0
  0
ENDBLK
  5
EE
330
E4
100
AcDbEntity
  8
0
100
AcDbBlockEnd
  0
BLOCK
  5
EF
330
F0
100
AcDbEntity
  8
0
100
AcDbBlockBegin
  2
-013-_D27
 70
     0
 10
0.0
 20
0.0
 30
0.0
  3
-013-_D27
  1

  0
LINE
  5
F1
330
F0
100
AcDbEntity
  8
_0-6__0-2_蟇_豕__ts
  6
Continuous
 62
     7
100
AcDbLine
 10
1759.516746686317
 20
289.7504307779606
 30
0.0
 11
1759.516746686317
 21
371.2036842605456
 31
0.0
  0
LINE
  5
F2
330
F0
100
AcDbEntity
  8
_0-6__0-2_蟇_豕__ts
  6
Continuous
 62
     7
100
AcDbLine
 10
1297.516746686317
 20
296.3779372213126
 30
0.0
 11
1297.516746686317
 21
371.2036842605456
 31
0.0
  0
LINE
  5
F3
330
F0
100
AcDbEntity
  8
_0-6__0-2_蟇_豕__ts
  6
Continuous
 62
     7
100
AcDbLine
 10
1752.509422467567
 20
361.2036842605456
 30
0.0
 11
1304.524070905067
 21
361.2036842605456
 31
0.0
  0
INSERT
  5
F4
330
F0
100
AcDbEntity
  8
_0-6__0-2_蟇_豕__ts
100
AcDbBlockReference
  2
-000-_DOT
 10
1759.516746686317
 20
361.2036842605456
 30
0.0
 41
7.00732421875
 42
7.00732421875
  0
INSERT
  5
F5
330
F0
100
AcDbEntity
  8
_0-6__0-2_蟇_豕__ts
100
AcDbBlockReference
  2
-000-_DOT
 10
1297.516746686317
 20
361.2036842605456
 30
0.0
 41
7.00732421875
 42
7.00732421875
 50
180.0
  0
TEXT
  5
F6
330
F0
100
AcDbEntity
  8
_0-6__0-2_蟇_豕__ts
 62
     7
100
AcDbText
 10
1510.238792584754
 20
364.2036842605456
 30
0.0
 40
24.37060546875
  1
462
100
AcDbText
  0
POINT
  5
F7
330
F0
100
AcDbEntity
  8
_0-5__0-4_Defpoints
 62
     7
100
AcDbPoint
 10
1759.516746686317
 20
281.7504307779606
 30
0.0
  0
POINT
  5
F8
330
F0
100
AcDbEntity
  8
_0-5__0-4_Defpoints
 62
     7
100
AcDbPoint
 10
1297.516746686317
 20
288.3779372213126
 30
0.0
  0
POINT
  5
F9
330
F0
100
AcDbEntity
  8
_0-5__0-4_Defpoints
 62
     7
100
AcDbPoint
 10
1297.516746686317
 20
361.2036842605456
 30
0.0
  0
ENDBLK
  5
FA
330
F0
100
AcDbEntity
  8
0
100
AcDbBlockEnd
  0
BLOCK
  5
FB
330
FC
100
AcDbEntity
  8
0
100
AcDbBlockBegin
  2
-014-_D29
 70
     0
 10
0.0
 20
0.0
 30
0.0
  3
-014-_D29
  1

  0
LINE
  5
FD
330
FC
100
AcDbEntity
  8
_0-6__0-2_蟇_豕__ts
  6
Continuous
 62
     7
100
AcDbLine
 10
423.0944672614731
 20
248.9999999999997
 30
0.0
 11
654.7833210630593
 21
248.9999999999998
 31
0.0
  0
LINE
  5
FE
330
FC
100
AcDbEntity
  8
_0-6__0-2_蟇_豕__ts
  6
Continuous
 62
     7
100
AcDbLine
 10
426.2451335020667
 20
-367.0000000000001
 30
0.0
 11
654.7833210630593
 21
-367.0
 31
0.0
  0
LINE
  5
FF
330
FC
100
AcDbEntity
  8
_0-6__0-2_蟇_豕__ts
  6
Continuous
 62
     7
100
AcDbLine
 10
644.7833210630594
 20
241.9926757812498
 30
0.0
 11
644.7833210630594
 21
-359.99267578125
 31
0.0
  0
INSERT
  5
100
330
FC
100
AcDbEntity
  8
_0-6__0-2_蟇_豕__ts
100
AcDbBlockReference
  2
-000-_DOT
 10
644.7833210630594
 20
248.9999999999998
 30
0.0
 41
7.00732421875
 42
7.00732421875
 50
90.0
  0
INSERT
  5
101
330
FC
100
AcDbEntity
  8
_0-6__0-2_蟇_豕__ts
100
AcDbBlockReference
  2
-000-_DOT
 10
644.7833210630594
 20
-367.0
 30
0.0
 41
7.00732421875
 42
7.00732421875
 50
270.0
  0
TEXT
  5
102
330
FC
100
AcDbEntity
  8
_0-6__0-2_蟇_豕__ts
 62
     7
100
AcDbText
 10
640.2833210630594
 20
-75.24707031250009
 30
0.0
 40
21.66276041666666
  1
616
 50
90.0
100
AcDbText
  0
POINT
  5
103
330
FC
100
AcDbEntity
  8
_0-5__0-4_Defpoints
 62
     7
100
AcDbPoint
 10
415.094467261473
 20
248.9999999999997
 30
0.0
  0
POINT
  5
104
330
FC
100
AcDbEntity
  8
_0-5__0-4_Defpoints
 62
     7
100
AcDbPoint
 10
418.2451335020667
 20
-367.0000000000001
 30
0.0
  0
POINT
  5
105
330
FC
100
AcDbEntity
  8
_0-5__0-4_Defpoints
 62
     7
100
AcDbPoint
 10
644.7833210630594
 20
-367.0
 30
0.0
  0
ENDBLK
  5
106
330
FC
100
AcDbEntity
  8
0
100
AcDbBlockEnd
  0
BLOCK
  5
107
330
108
100
AcDbEntity
  8
0
100
AcDbBlockBegin
  2
-015-_D30
 70
     0
 10
0.0
 20
0.0
 30
0.0
  3
-015-_D30
  1

  0
LINE
  5
109
330
108
100
AcDbEntity
  8
_0-6__0-2_蟇_豕__ts
  6
Continuous
 62
     7
100
AcDbLine
 10
391.0944672614736
 20
52.99999999999994
 30
0.0
 11
585.2451335020667
 21
53.0
 31
0.0
  0
LINE
  5
10A
330
108
100
AcDbEntity
  8
_0-6__0-2_蟇_豕__ts
  6
Continuous
 62
     7
100
AcDbLine
 10
438.2451335020667
 20
-367.0000000000001
 30
0.0
 11
585.2451335020667
 21
-367.0
 31
0.0
  0
LINE
  5
10B
330
108
100
AcDbEntity
  8
_0-6__0-2_蟇_豕__ts
  6
Continuous
 62
     7
100
AcDbLine
 10
575.2451335020667
 20
45.99267578125
 30
0.0
 11
575.2451335020667
 21
-359.99267578125
 31
0.0
  0
INSERT
  5
10C
330
108
100
AcDbEntity
  8
_0-6__0-2_蟇_豕__ts
100
AcDbBlockReference
  2
-000-_DOT
 10
575.2451335020667
 20
53.0
 30
0.0
 41
7.00732421875
 42
7.00732421875
 50
90.0
  0
INSERT
  5
10D
330
108
100
AcDbEntity
  8
_0-6__0-2_蟇_豕__ts
100
AcDbBlockReference
  2
-000-_DOT
 10
575.2451335020667
 20
-367.0
 30
0.0
 41
7.00732421875
 42
7.00732421875
 50
270.0
  0
TEXT
  5
10E
330
108
100
AcDbEntity
  8
_0-6__0-2_蟇_豕__ts
 62
     7
100
AcDbText
 10
572.2451335020667
 20
-173.2470703125
 30
0.0
 40
21.66276041666664
  1
420
 50
90.0
100
AcDbText
  0
POINT
  5
10F
330
108
100
AcDbEntity
  8
_0-5__0-4_Defpoints
 62
     7
100
AcDbPoint
 10
383.0944672614736
 20
52.99999999999994
 30
0.0
  0
POINT
  5
110
330
108
100
AcDbEntity
  8
_0-5__0-4_Defpoints
 62
     7
100
AcDbPoint
 10
430.2451335020667
 20
-367.0000000000001
 30
0.0
  0
POINT
  5
111
330
108
100
AcDbEntity
  8
_0-5__0-4_Defpoints
 62
     7
100
AcDbPoint
 10
575.2451335020667
 20
-367.0
 30
0.0
  0
ENDBLK
  5
112
330
108
100
AcDbEntity
  8
0
100
AcDbBlockEnd
  0
BLOCK
  5
113
330
114
100
AcDbEntity
  8
0
100
AcDbBlockBegin
  2
-016-_D31
 70
     0
 10
0.0
 20
0.0
 30
0.0
  3
-016-_D31
  1

  0
LINE
  5
115
330
114
100
AcDbEntity
  8
_0-6__0-2_蟇_豕__ts
  6
Continuous
 62
     7
100
AcDbLine
 10
1720.730218304236
 20
61.33820933471378
 30
0.0
 11
1720.730218304236
 21
137.0
 31
0.0
  0
LINE
  5
116
330
114
100
AcDbEntity
  8
_0-6__0-2_蟇_豕__ts
  6
Continuous
 62
     7
100
AcDbLine
 10
1334.730218304236
 20
61.33820933471378
 30
0.0
 11
1334.730218304236
 21
137.0
 31
0.0
  0
LINE
  5
117
330
114
100
AcDbEntity
  8
_0-6__0-2_蟇_豕__ts
  6
Continuous
 62
     7
100
AcDbLine
 10
1713.722894085486
 20
127.0
 30
0.0
 11
1341.737542522986
 21
127.0
 31
0.0
  0
INSERT
  5
118
330
114
100
AcDbEntity
  8
_0-6__0-2_蟇_豕__ts
100
AcDbBlockReference
  2
-000-_DOT
 10
1720.730218304236
 20
127.0
 30
0.0
 41
7.00732421875
 42
7.00732421875
  0
INSERT
  5
119
330
114
100
AcDbEntity
  8
_0-6__0-2_蟇_豕__ts
100
AcDbBlockReference
  2
-000-_DOT
 10
1334.730218304236
 20
127.0
 30
0.0
 41
7.00732421875
 42
7.00732421875
 50
180.0
  0
TEXT
  5
11A
330
114
100
AcDbEntity
  8
_0-6__0-2_蟇_豕__ts
 62
     7
100
AcDbText
 10
1509.452264202673
 20
130.0
 30
0.0
 40
24.37060546875
  1
386
100
AcDbText
  0
POINT
  5
11B
330
114
100
AcDbEntity
  8
_0-5__0-4_Defpoints
 62
     7
100
AcDbPoint
 10
1720.730218304236
 20
53.33820933471378
 30
0.0
  0
POINT
  5
11C
330
114
100
AcDbEntity
  8
_0-5__0-4_Defpoints
 62
     7
100
AcDbPoint
 10
1334.730218304236
 20
53.33820933471378
 30
0.0
  0
POINT
  5
11D
330
114
100
AcDbEntity
  8
_0-5__0-4_Defpoints
 62
     7
100
AcDbPoint
 10
1334.730218304236
 20
127.0
 30
0.0
  0
ENDBLK
  5
11E
330
114
100
AcDbEntity
  8
0
100
AcDbBlockEnd
  0
ENDSEC
  0
SECTION
  2
ENTITIES
  0
LINE
  5
11F
330
1D
100
AcDbEntity
  8
_0-1_荳_闊_
  6
Continuous
 62
     7
100
AcDbLine
 10
37095.29660398058
 20
1072.964560190828
 30
0.0
 11
37095.29660398058
 21
462.9645601908286
 31
0.0
  0
LINE
  5
120
330
1D
100
AcDbEntity
  8
_0-1_荳_闊_
  6
Continuous
 62
     7
100
AcDbLine
 10
37095.29660398058
 20
849.9645601908287
 30
0.0
 11
38775.29660398058
 21
849.9645601908287
 31
0.0
  0
LINE
  5
121
330
1D
100
AcDbEntity
  8
_0-1_荳_闊_
  6
Continuous
 62
     7
100
AcDbLine
 10
37095.29660398058
 20
845.9645601908286
 30
0.0
 11
38775.29660398058
 21
845.9645601908286
 31
0.0
  0
LINE
  5
122
330
1D
100
AcDbEntity
  8
_0-1_荳_闊_
  6
Continuous
 62
     7
100
AcDbLine
 10
37038.29660398058
 20
1075.964560190828
 30
0.0
 11
37092.29660398058
 21
1075.964560190828
 31
0.0
  0
ARC
  5
123
330
1D
100
AcDbEntity
  8
_0-1_荳_闊_
  6
Continuous
 62
     7
100
AcDbCircle
 10
37092.29660398058
 20
1072.964560190828
 30
0.0
 40
2.999999999999972
100
AcDbArc
 50
359.9999999999995
 51
90.00000000000051
  0
ARC
  5
124
330
1D
100
AcDbEntity
  8
_0-1_荳_闊_
  6
Continuous
 62
     7
100
AcDbCircle
 10
37092.29660398058
 20
462.9645601908286
 30
0.0
 40
3.000000000000398
100
AcDbArc
 50
270.0000000000076
 51
359.9999999999925
  0
LINE
  5
125
330
1D
100
AcDbEntity
  8
_0-1_荳_闊_
  6
Continuous
 62
     7
100
AcDbLine
 10
37092.29660398058
 20
459.9645601908287
 30
0.0
 11
37038.29660398058
 21
459.9645601908287
 31
0.0
  0
ARC
  5
126
330
1D
100
AcDbEntity
  8
_0-1_荳_闊_
  6
Continuous
 62
     7
100
AcDbCircle
 10
37038.29660398058
 20
462.9645601908286
 30
0.0
 40
3.000000000000398
100
AcDbArc
 50
180.0000000000076
 51
269.9999999999924
  0
LINE
  5
127
330
1D
100
AcDbEntity
  8
_0-1_荳_闊_
  6
Continuous
 62
     7
100
AcDbLine
 10
37035.29660398058
 20
462.9645601908286
 30
0.0
 11
37035.29660398058
 21
1072.964560190828
 31
0.0
  0
ARC
  5
128
330
1D
100
AcDbEntity
  8
_0-1_荳_闊_
  6
Continuous
 62
     7
100
AcDbCircle
 10
37038.29660398058
 20
1072.964560190828
 30
0.0
 40
2.999999999999972
100
AcDbArc
 50
89.99999999999948
 51
180.0000000000006
  0
LINE
  5
12A
330
1D
100
AcDbEntity
  8
_0-1_荳_闊_
  6
Continuous
 62
     7
100
AcDbLine
 10
37878.20213671911
 20
1457.097447792281
 30
0.0
 11
38028.2021367191
 21
1457.097447792281
 31
0.0
  0
LINE
  5
12B
330
1D
100
AcDbEntity
  8
_0-1_荳_闊_
  6
Continuous
 62
     7
100
AcDbLine
 10
38028.2021367191
 20
1457.097447792281
 30
0.0
 11
38028.2021367191
 21
1417.097447792281
 31
0.0
  0
LINE
  5
12C
330
1D
100
AcDbEntity
  8
_0-1_荳_闊_
  6
Continuous
 62
     7
100
AcDbLine
 10
38028.2021367191
 20
1417.097447792281
 30
0.0
 11
37878.20213671911
 21
1417.097447792281
 31
0.0
  0
LINE
  5
12D
330
1D
100
AcDbEntity
  8
_0-1_荳_闊_
  6
Continuous
 62
     7
100
AcDbLine
 10
37878.20213671911
 20
1417.097447792281
 30
0.0
 11
37878.20213671911
 21
1457.097447792281
 31
0.0
  0
LINE
  5
12E
330
1D
100
AcDbEntity
  8
_0-1_荳_闊_
  6
Continuous
 62
     7
100
AcDbLine
 10
37878.20213671911
 20
-213.9887318553701
 30
0.0
 11
38028.2021367191
 21
-213.9887318553701
 31
0.0
  0
LINE
  5
12F
330
1D
100
AcDbEntity
  8
_0-1_荳_闊_
  6
Continuous
 62
     7
100
AcDbLine
 10
38028.2021367191
 20
-213.9887318553701
 30
0.0
 11
38028.2021367191
 21
-253.9887318553701
 31
0.0
  0
LINE
  5
130
330
1D
100
AcDbEntity
  8
_0-1_荳_闊_
  6
Continuous
 62
     7
100
AcDbLine
 10
38028.2021367191
 20
-253.9887318553701
 30
0.0
 11
37878.20213671911
 21
-253.9887318553701
 31
0.0
  0
LINE
  5
131
330
1D
100
AcDbEntity
  8
_0-1_荳_闊_
  6
Continuous
 62
     7
100
AcDbLine
 10
37878.20213671911
 20
-253.9887318553701
 30
0.0
 11
37878.20213671911
 21
-213.9887318553701
 31
0.0
  0
LINE
  5
132
330
1D
100
AcDbEntity
  8
_0-1_荳_闊_
  6
繝_繧_繝_繧_繧_繝__10
 62
     7
100
AcDbLine
 10
40434.40771509169
 20
459.9645601908287
 30
0.0
 11
39409.40771509169
 21
459.9645601908287
 31
0.0
  0
LINE
  5
133
330
1D
100
AcDbEntity
  8
_0-1_荳_闊_
  6
Continuous
 62
     7
100
AcDbLine
 10
39870.40771509169
 20
-213.9887318553701
 30
0.0
 11
40020.40771509169
 21
-213.9887318553701
 31
0.0
  0
LINE
  5
134
330
1D
100
AcDbEntity
  8
_0-1_荳_闊_
  6
Continuous
 62
     7
100
AcDbLine
 10
40020.40771509169
 20
-213.9887318553701
 30
0.0
 11
40020.40771509169
 21
-253.9887318553701
 31
0.0
  0
LINE
  5
135
330
1D
100
AcDbEntity
  8
_0-1_荳_闊_
  6
Continuous
 62
     7
100
AcDbLine
 10
40020.40771509169
 20
-253.9887318553701
 30
0.0
 11
39870.40771509169
 21
-253.9887318553701
 31
0.0
  0
LINE
  5
136
330
1D
100
AcDbEntity
  8
_0-1_荳_闊_
  6
Continuous
 62
     7
100
AcDbLine
 10
39870.40771509169
 20
-253.9887318553701
 30
0.0
 11
39870.40771509169
 21
-213.9887318553701
 31
0.0
  0
LINE
  5
137
330
1D
100
AcDbEntity
  8
_0-1_荳_闊_
  6
Continuous
 62
     7
100
AcDbLine
 10
36582.00325952525
 20
-364.9645601908305
 30
0.0
 11
39838.43403951795
 21
-364.9645601908305
 31
0.0
  0
LINE
  5
138
330
1D
100
AcDbEntity
  8
_0-1_荳_闊_
  6
Continuous
 62
     7
100
AcDbLine
 10
39838.43403951795
 20
-364.9645601908305
 30
0.0
 11
39838.43403951795
 21
-484.9645601908305
 31
0.0
  0
LINE
  5
139
330
1D
100
AcDbEntity
  8
_0-1_荳_闊_
  6
Continuous
 62
     7
100
AcDbLine
 10
39838.43403951795
 20
-484.9645601908305
 30
0.0
 11
36582.00325952525
 21
-484.9645601908305
 31
0.0
  0
LINE
  5
13A
330
1D
100
AcDbEntity
  8
_0-1_荳_闊_
  6
Continuous
 62
     7
100
AcDbLine
 10
36582.00325952525
 20
-484.9645601908305
 30
0.0
 11
36582.00325952525
 21
-364.9645601908305
 31
0.0
  0
LINE
  5
13B
330
1D
100
AcDbEntity
  8
_0-1_荳_闊_
  6
Continuous
 62
     7
100
AcDbLine
 10
38260.43403951795
 20
-364.9645601908305
 30
0.0
 11
38260.43403951795
 21
-484.9645601908305
 31
0.0
  0
LINE
  5
13C
330
1D
100
AcDbEntity
  8
_0-1_荳_闊_
  6
Continuous
 62
     7
100
AcDbLine
 10
39534.43403951795
 20
-364.9645601908305
 30
0.0
 11
39534.43403951795
 21
-484.9645601908305
 31
0.0
  0
LINE
  5
13D
330
1D
100
AcDbEntity
  8
_0-1_荳_闊_
  6
Continuous
 62
     7
100
AcDbLine
 10
39230.43403951795
 20
-364.9645601908305
 30
0.0
 11
39230.43403951795
 21
-484.9645601908305
 31
0.0
  0
LINE
  5
13E
330
1D
100
AcDbEntity
  8
_0-1_荳_闊_
  6
Continuous
 62
     7
100
AcDbLine
 10
39230.43403951795
 20
-364.9645601908305
 30
0.0
 11
39230.43403951795
 21
-484.9645601908305
 31
0.0
  0
LINE
  5
13F
330
1D
100
AcDbEntity
  8
_0-1_荳_闊_
  6
Continuous
 62
     7
100
AcDbLine
 10
38584.43403951795
 20
-364.9645601908305
 30
0.0
 11
38584.43403951795
 21
-484.9645601908305
 31
0.0
  0
LINE
  5
140
330
1D
100
AcDbEntity
  8
_0-1_荳_闊_
  6
Continuous
 62
     7
100
AcDbLine
 10
39534.43403951795
 20
-364.9645601908305
 30
0.0
 11
39534.43403951795
 21
-484.9645601908305
 31
0.0
  0
LINE
  5
141
330
1D
100
AcDbEntity
  8
_0-1_荳_闊_
  6
Continuous
 62
     7
100
AcDbLine
 10
39838.43403951795
 20
-364.9645601908305
 30
0.0
 11
40439.23915968664
 21
-364.9645601908305
 31
0.0
  0
LINE
  5
142
330
1D
100
AcDbEntity
  8
_0-1_荳_闊_
  6
Continuous
 62
     7
100
AcDbLine
 10
40439.23915968664
 20
-364.9645601908305
 30
0.0
 11
40439.23915968664
 21
-484.9645601908305
 31
0.0
  0
LINE
  5
143
330
1D
100
AcDbEntity
  8
_0-1_荳_闊_
  6
Continuous
 62
     7
100
AcDbLine
 10
40439.23915968664
 20
-484.9645601908305
 30
0.0
 11
39838.43403951795
 21
-484.9645601908305
 31
0.0
  0
LINE
  5
144
330
1D
100
AcDbEntity
  8
_0-1_荳_闊_
  6
Continuous
 62
     7
100
AcDbLine
 10
39838.43403951795
 20
-484.9645601908305
 30
0.0
 11
39838.43403951795
 21
-364.9645601908305
 31
0.0
  0
LINE
  5
145
330
1D
100
AcDbEntity
  8
_0-1_荳_闊_
  6
Continuous
 62
     7
100
AcDbLine
 10
36979.40771509169
 20
820.966314402167
 30
0.0
 11
37040.40771509169
 21
740.966314402167
 31
0.0
  0
LINE
  5
146
330
1D
100
AcDbEntity
  8
_0-1_荳_闊_
  6
Continuous
 62
     7
100
AcDbLine
 10
37033.80613713083
 20
757.3057932249176
 30
0.0
 11
37040.40771509169
 21
740.966314402167
 31
0.0
  0
LINE
  5
147
330
1D
100
AcDbEntity
  8
_0-1_荳_闊_
  6
Continuous
 62
     7
100
AcDbLine
 10
37040.40771509169
 20
740.966314402167
 30
0.0
 11
37026.52084146114
 21
751.8159291668325
 31
0.0
  0
LINE
  5
148
330
1D
100
AcDbEntity
  8
_0-1_荳_闊_
  6
Continuous
 62
     7
100
AcDbLine
 10
37026.52084146114
 20
751.8159291668325
 30
0.0
 11
37033.80613713083
 21
757.3057932249176
 31
0.0
  0
LINE
  5
149
330
1D
100
AcDbEntity
  8
_0-1_荳_闊_
  6
Continuous
 62
     7
100
AcDbLine
 10
36915.9077150917
 20
820.966314402167
 30
0.0
 11
36979.40771509169
 21
820.966314402167
 31
0.0
  0
LINE
  5
14A
330
1D
100
AcDbEntity
  8
_0-1_荳_闊_
  6
繝_繧_繝_繧_繧_繝__10
 62
     7
100
AcDbLine
 10
39081.90771509169
 20
459.9645601908287
 30
0.0
 11
36831.9077150917
 21
459.9645601908287
 31
0.0
  0
INSERT
  5
14B
330
1D
100
AcDbEntity
  8
_0-6__0-2_蟇_豕__ts
100
AcDbBlockReference
  2
-001-_D3
 10
38417.20213671911
 20
826.9645601908287
 30
0.0
  0
INSERT
  5
14C
330
1D
100
AcDbEntity
  8
_0-6__0-2_蟇_豕__ts
100
AcDbBlockReference
  2
-002-_D4
 10
38417.20213671911
 20
826.9645601908287
 30
0.0
  0
INSERT
  5
14D
330
1D
100
AcDbEntity
  8
_0-6__0-2_蟇_豕__ts
100
AcDbBlockReference
  2
-003-_D5
 10
38417.20213671911
 20
826.9645601908287
 30
0.0
  0
INSERT
  5
14E
330
1D
100
AcDbEntity
  8
_0-6__0-2_蟇_豕__ts
100
AcDbBlockReference
  2
-004-_D6
 10
38417.20213671911
 20
826.9645601908287
 30
0.0
  0
INSERT
  5
14F
330
1D
100
AcDbEntity
  8
_0-6__0-2_蟇_豕__ts
100
AcDbBlockReference
  2
-005-_D7
 10
38417.20213671911
 20
826.9645601908287
 30
0.0
  0
INSERT
  5
150
330
1D
100
AcDbEntity
  8
_0-6__0-2_蟇_豕__ts
100
AcDbBlockReference
  2
-006-_D8
 10
38417.20213671911
 20
826.9645601908287
 30
0.0
  0
LINE
  5
151
330
1D
100
AcDbEntity
  8
_0-1_荳_闊_
  6
Continuous
 62
     7
100
AcDbLine
 10
39645.71888340543
 20
459.9645601908287
 30
0.0
 11
40245.71888340542
 21
459.9645601908287
 31
0.0
  0
LINE
  5
152
330
1D
100
AcDbEntity
  8
_0-1_荳_闊_
  6
Continuous
 62
     7
100
AcDbLine
 10
40245.71888340542
 20
459.9645601908287
 30
0.0
 11
40245.71888340542
 21
159.9645601908287
 31
0.0
  0
LINE
  5
153
330
1D
100
AcDbEntity
  8
_0-1_荳_闊_
  6
Continuous
 62
     7
100
AcDbLine
 10
40245.71888340542
 20
159.9645601908287
 30
0.0
 11
39645.71888340543
 21
159.9645601908287
 31
0.0
  0
LINE
  5
154
330
1D
100
AcDbEntity
  8
_0-1_荳_闊_
  6
Continuous
 62
     7
100
AcDbLine
 10
39645.71888340543
 20
159.9645601908287
 30
0.0
 11
39645.71888340543
 21
459.9645601908287
 31
0.0
  0
INSERT
  5
155
330
1D
100
AcDbEntity
  8
_0-6__0-2_蟇_豕__ts
100
AcDbBlockReference
  2
-007-_D9
 10
38417.20213671911
 20
826.9645601908287
 30
0.0
  0
LINE
  5
156
330
1D
100
AcDbEntity
  8
_0-1_荳_闊_
  6
Continuous
 62
     7
100
AcDbLine
 10
39595.71888340543
 20
159.9645601908287
 30
0.0
 11
40295.71888340542
 21
159.9645601908287
 31
0.0
  0
LINE
  5
157
330
1D
100
AcDbEntity
  8
_0-1_荳_闊_
  6
Continuous
 62
     7
100
AcDbLine
 10
40295.71888340542
 20
159.9645601908287
 30
0.0
 11
40295.71888340542
 21
109.9645601908287
 31
0.0
  0
LINE
  5
158
330
1D
100
AcDbEntity
  8
_0-1_荳_闊_
  6
Continuous
 62
     7
100
AcDbLine
 10
40295.71888340542
 20
109.9645601908287
 30
0.0
 11
39595.71888340543
 21
109.9645601908287
 31
0.0
  0
LINE
  5
159
330
1D
100
AcDbEntity
  8
_0-1_荳_闊_
  6
Continuous
 62
     7
100
AcDbLine
 10
39595.71888340543
 20
109.9645601908287
 30
0.0
 11
39595.71888340543
 21
159.9645601908287
 31
0.0
  0
LINE
  5
15A
330
1D
100
AcDbEntity
  8
_0-1_荳_闊_
  6
Continuous
 62
     7
100
AcDbLine
 10
40195.6594519239
 20
109.9645601908287
 30
0.0
 11
40224.52696538338
 21
159.9645601908287
 31
0.0
  0
LINE
  5
15B
330
1D
100
AcDbEntity
  8
_0-1_荳_闊_
  6
Continuous
 62
     7
100
AcDbLine
 10
40221.87633028877
 20
155.3735255346364
 30
0.0
 11
40217.28529563258
 21
159.9645601908287
 31
0.0
  0
LINE
  5
15C
330
1D
100
AcDbEntity
  8
_0-1_荳_闊_
  6
Continuous
 62
     7
100
AcDbLine
 10
40198.31008701851
 20
114.555594847021
 30
0.0
 11
40202.9011216747
 21
109.9645601908287
 31
0.0
  0
LINE
  5
15D
330
1D
100
AcDbEntity
  8
_0-1_荳_闊_
  6
Continuous
 62
     7
100
AcDbLine
 10
40262.21193846441
 20
109.9645601908287
 30
0.0
 11
40291.07945192389
 21
159.9645601908287
 31
0.0
  0
LINE
  5
15E
330
1D
100
AcDbEntity
  8
_0-1_荳_闊_
  6
Continuous
 62
     7
100
AcDbLine
 10
40288.42881682928
 20
155.3735255346364
 30
0.0
 11
40283.83778217309
 21
159.9645601908287
 31
0.0
  0
LINE
  5
15F
330
1D
100
AcDbEntity
  8
_0-1_荳_闊_
  6
Continuous
 62
     7
100
AcDbLine
 10
40264.86257355903
 20
114.555594847021
 30
0.0
 11
40269.45360821522
 21
109.9645601908287
 31
0.0
  0
LINE
  5
160
330
1D
100
AcDbEntity
  8
_0-1_荳_闊_
  6
Continuous
 62
     7
100
AcDbLine
 10
40062.55447884286
 20
109.9645601908287
 30
0.0
 11
40091.42199230234
 21
159.9645601908287
 31
0.0
  0
LINE
  5
161
330
1D
100
AcDbEntity
  8
_0-1_荳_闊_
  6
Continuous
 62
     7
100
AcDbLine
 10
40088.77135720773
 20
155.3735255346364
 30
0.0
 11
40084.18032255154
 21
159.9645601908287
 31
0.0
  0
LINE
  5
162
330
1D
100
AcDbEntity
  8
_0-1_荳_闊_
  6
Continuous
 62
     7
100
AcDbLine
 10
40065.20511393748
 20
114.555594847021
 30
0.0
 11
40069.79614859367
 21
109.9645601908287
 31
0.0
  0
LINE
  5
163
330
1D
100
AcDbEntity
  8
_0-1_荳_闊_
  6
Continuous
 62
     7
100
AcDbLine
 10
40129.10696538338
 20
109.9645601908287
 30
0.0
 11
40157.97447884287
 21
159.9645601908287
 31
0.0
  0
LINE
  5
164
330
1D
100
AcDbEntity
  8
_0-1_荳_闊_
  6
Continuous
 62
     7
100
AcDbLine
 10
40155.32384374825
 20
155.3735255346364
 30
0.0
 11
40150.73280909206
 21
159.9645601908287
 31
0.0
  0
LINE
  5
165
330
1D
100
AcDbEntity
  8
_0-1_荳_闊_
  6
Continuous
 62
     7
100
AcDbLine
 10
40131.757600478
 20
114.555594847021
 30
0.0
 11
40136.34863513418
 21
109.9645601908287
 31
0.0
  0
LINE
  5
166
330
1D
100
AcDbEntity
  8
_0-1_荳_闊_
  6
Continuous
 62
     7
100
AcDbLine
 10
39996.00199230235
 20
109.9645601908287
 30
0.0
 11
40024.86950576183
 21
159.9645601908287
 31
0.0
  0
LINE
  5
167
330
1D
100
AcDbEntity
  8
_0-1_荳_闊_
  6
Continuous
 62
     7
100
AcDbLine
 10
40022.21887066722
 20
155.3735255346364
 30
0.0
 11
40017.62783601103
 21
159.9645601908287
 31
0.0
  0
LINE
  5
168
330
1D
100
AcDbEntity
  8
_0-1_荳_闊_
  6
Continuous
 62
     7
100
AcDbLine
 10
39998.65262739697
 20
114.555594847021
 30
0.0
 11
40003.24366205314
 21
109.9645601908287
 31
0.0
  0
LINE
  5
169
330
1D
100
AcDbEntity
  8
_0-1_荳_闊_
  6
Continuous
 62
     7
100
AcDbLine
 10
39862.89701922132
 20
109.9645601908287
 30
0.0
 11
39891.7645326808
 21
159.9645601908287
 31
0.0
  0
LINE
  5
16A
330
1D
100
AcDbEntity
  8
_0-1_荳_闊_
  6
Continuous
 62
     7
100
AcDbLine
 10
39889.11389758619
 20
155.3735255346364
 30
0.0
 11
39884.52286293
 21
159.9645601908287
 31
0.0
  0
LINE
  5
16B
330
1D
100
AcDbEntity
  8
_0-1_荳_闊_
  6
Continuous
 62
     7
100
AcDbLine
 10
39865.54765431593
 20
114.555594847021
 30
0.0
 11
39870.13868897212
 21
109.9645601908287
 31
0.0
  0
LINE
  5
16C
330
1D
100
AcDbEntity
  8
_0-1_荳_闊_
  6
Continuous
 62
     7
100
AcDbLine
 10
39929.44950576184
 20
109.9645601908287
 30
0.0
 11
39958.31701922131
 21
159.9645601908287
 31
0.0
  0
LINE
  5
16D
330
1D
100
AcDbEntity
  8
_0-1_荳_闊_
  6
Continuous
 62
     7
100
AcDbLine
 10
39955.66638412671
 20
155.3735255346364
 30
0.0
 11
39951.07534947051
 21
159.9645601908287
 31
0.0
  0
LINE
  5
16E
330
1D
100
AcDbEntity
  8
_0-1_荳_闊_
  6
Continuous
 62
     7
100
AcDbLine
 10
39932.10014085645
 20
114.555594847021
 30
0.0
 11
39936.69117551263
 21
109.9645601908287
 31
0.0
  0
LINE
  5
16F
330
1D
100
AcDbEntity
  8
_0-1_荳_闊_
  6
Continuous
 62
     7
100
AcDbLine
 10
39729.79204614028
 20
109.9645601908287
 30
0.0
 11
39758.65955959977
 21
159.9645601908287
 31
0.0
  0
LINE
  5
170
330
1D
100
AcDbEntity
  8
_0-1_荳_闊_
  6
Continuous
 62
     7
100
AcDbLine
 10
39756.00892450516
 20
155.3735255346364
 30
0.0
 11
39751.41788984896
 21
159.9645601908287
 31
0.0
  0
LINE
  5
171
330
1D
100
AcDbEntity
  8
_0-1_荳_闊_
  6
Continuous
 62
     7
100
AcDbLine
 10
39732.4426812349
 20
114.555594847021
 30
0.0
 11
39737.03371589109
 21
109.9645601908287
 31
0.0
  0
LINE
  5
172
330
1D
100
AcDbEntity
  8
_0-1_荳_闊_
  6
Continuous
 62
     7
100
AcDbLine
 10
39796.3445326808
 20
109.9645601908287
 30
0.0
 11
39825.21204614028
 21
159.9645601908287
 31
0.0
  0
LINE
  5
173
330
1D
100
AcDbEntity
  8
_0-1_荳_闊_
  6
Continuous
 62
     7
100
AcDbLine
 10
39822.56141104567
 20
155.3735255346364
 30
0.0
 11
39817.97037638948
 21
159.9645601908287
 31
0.0
  0
LINE
  5
174
330
1D
100
AcDbEntity
  8
_0-1_荳_闊_
  6
Continuous
 62
     7
100
AcDbLine
 10
39798.99516777542
 20
114.555594847021
 30
0.0
 11
39803.5862024316
 21
109.9645601908287
 31
0.0
  0
LINE
  5
175
330
1D
100
AcDbEntity
  8
_0-1_荳_闊_
  6
Continuous
 62
     7
100
AcDbLine
 10
39596.68707305925
 20
109.9645601908287
 30
0.0
 11
39625.55458651873
 21
159.9645601908287
 31
0.0
  0
LINE
  5
176
330
1D
100
AcDbEntity
  8
_0-1_荳_闊_
  6
Continuous
 62
     7
100
AcDbLine
 10
39622.90395142412
 20
155.3735255346364
 30
0.0
 11
39618.31291676793
 21
159.9645601908287
 31
0.0
  0
LINE
  5
177
330
1D
100
AcDbEntity
  8
_0-1_荳_闊_
  6
Continuous
 62
     7
100
AcDbLine
 10
39599.33770815386
 20
114.555594847021
 30
0.0
 11
39603.92874281006
 21
109.9645601908287
 31
0.0
  0
LINE
  5
178
330
1D
100
AcDbEntity
  8
_0-1_荳_闊_
  6
Continuous
 62
     7
100
AcDbLine
 10
39663.23955959977
 20
109.9645601908287
 30
0.0
 11
39692.10707305925
 21
159.9645601908287
 31
0.0
  0
LINE
  5
179
330
1D
100
AcDbEntity
  8
_0-1_荳_闊_
  6
Continuous
 62
     7
100
AcDbLine
 10
39689.45643796464
 20
155.3735255346364
 30
0.0
 11
39684.86540330845
 21
159.9645601908287
 31
0.0
  0
LINE
  5
17A
330
1D
100
AcDbEntity
  8
_0-1_荳_闊_
  6
Continuous
 62
     7
100
AcDbLine
 10
39665.89019469438
 20
114.555594847021
 30
0.0
 11
39670.48122935058
 21
109.9645601908287
 31
0.0
  0
LINE
  5
17B
330
1D
100
AcDbEntity
  8
_0-1_荳_闊_
  6
Continuous
 62
     7
100
AcDbLine
 10
38682.52562135735
 20
596.9985056599216
 30
0.0
 11
38643.52562135735
 21
596.9985056599216
 31
0.0
  0
LINE
  5
17C
330
1D
100
AcDbEntity
  8
_0-1_荳_闊_
  6
Continuous
 62
     7
100
AcDbLine
 10
38682.52562135735
 20
596.9985056599216
 30
0.0
 11
38778.47935071035
 21
471.1575491313943
 31
0.0
  0
LINE
  5
17D
330
1D
100
AcDbEntity
  8
_0-1_荳_闊_
  6
Continuous
 62
     7
100
AcDbLine
 10
38771.87777274948
 20
487.4970279541448
 30
0.0
 11
38778.47935071035
 21
471.1575491313943
 31
0.0
  0
LINE
  5
17E
330
1D
100
AcDbEntity
  8
_0-1_荳_闊_
  6
Continuous
 62
     7
100
AcDbLine
 10
38778.47935071035
 20
471.1575491313943
 30
0.0
 11
38764.59247707979
 21
482.0071638960598
 31
0.0
  0
LINE
  5
17F
330
1D
100
AcDbEntity
  8
_0-1_荳_闊_
  6
Continuous
 62
     7
100
AcDbLine
 10
38764.59247707979
 20
482.0071638960598
 30
0.0
 11
38771.87777274948
 21
487.4970279541448
 31
0.0
  0
LINE
  5
180
330
1D
100
AcDbEntity
  8
_0-1_荳_闊_
  6
Continuous
 62
     7
100
AcDbLine
 10
38696.60266389101
 20
330.1697868173123
 30
0.0
 11
38573.55853464069
 21
330.1697868173123
 31
0.0
  0
LINE
  5
181
330
1D
100
AcDbEntity
  8
_0-1_荳_闊_
  6
Continuous
 62
     7
100
AcDbLine
 10
38696.60266389101
 20
330.1697868173123
 30
0.0
 11
38783.82829135899
 21
432.390621510236
 31
0.0
  0
LINE
  5
182
330
1D
100
AcDbEntity
  8
_0-1_荳_闊_
  6
Continuous
 62
     7
100
AcDbLine
 10
38769.39262424254
 20
422.2826585762122
 30
0.0
 11
38783.82829135899
 21
432.390621510236
 31
0.0
  0
LINE
  5
183
330
1D
100
AcDbEntity
  8
_0-1_荳_闊_
  6
Continuous
 62
     7
100
AcDbLine
 10
38783.82829135899
 20
432.390621510236
 30
0.0
 11
38776.38061838258
 21
416.4190352706355
 31
0.0
  0
LINE
  5
184
330
1D
100
AcDbEntity
  8
_0-1_荳_闊_
  6
Continuous
 62
     7
100
AcDbLine
 10
38776.38061838258
 20
416.4190352706355
 30
0.0
 11
38769.39262424254
 21
422.2826585762122
 31
0.0
  0
INSERT
  5
185
330
1D
100
AcDbEntity
  8
_0-6__0-2_蟇_豕__ts
100
AcDbBlockReference
  2
-008-_D11
 10
38417.20213671911
 20
826.9645601908287
 30
0.0
  0
INSERT
  5
186
330
1D
100
AcDbEntity
  8
_0-6__0-2_蟇_豕__ts
100
AcDbBlockReference
  2
-009-_D12
 10
38417.20213671911
 20
826.9645601908287
 30
0.0
  0
LINE
  5
187
330
1D
100
AcDbEntity
  8
_0-1_荳_闊_
  6
VW-01_遏_遐_邱__
 62
     7
100
AcDbLine
 10
38642.4077150917
 20
2138.97397358532
 30
0.0
 11
38942.40771509169
 21
2138.97397358532
 31
0.0
  0
LINE
  5
188
330
1D
100
AcDbEntity
  8
_0-1_荳_闊_
  6
VW-01_遏_遐_邱__
 62
     7
100
AcDbLine
 10
38942.40771509169
 20
2138.97397358532
 30
0.0
 11
38942.40771509169
 21
1538.97397358532
 31
0.0
  0
LINE
  5
189
330
1D
100
AcDbEntity
  8
_0-1_荳_闊_
  6
VW-01_遏_遐_邱__
 62
     7
100
AcDbLine
 10
38942.40771509169
 20
1538.97397358532
 30
0.0
 11
38642.4077150917
 21
1538.97397358532
 31
0.0
  0
LINE
  5
18A
330
1D
100
AcDbEntity
  8
_0-1_荳_闊_
  6
VW-01_遏_遐_邱__
 62
     7
100
AcDbLine
 10
38642.4077150917
 20
1538.97397358532
 30
0.0
 11
38642.4077150917
 21
2138.97397358532
 31
0.0
  0
LINE
  5
18B
330
1D
100
AcDbEntity
  8
_0-1_荳_闊_
  6
Continuous
 62
     7
100
AcDbLine
 10
37095.29660398058
 20
799.9645601908286
 30
0.0
 11
38775.29660398058
 21
799.9645601908286
 31
0.0
  0
LINE
  5
18C
330
1D
100
AcDbEntity
  8
_0-1_荳_闊_
  6
Continuous
 62
     7
100
AcDbLine
 10
37095.29660398058
 20
879.9645601908286
 30
0.0
 11
38775.29660398058
 21
879.9645601908286
 31
0.0
  0
LINE
  5
18D
330
1D
100
AcDbEntity
  8
_0-1_荳_闊_
  6
Continuous
 62
     7
100
AcDbLine
 10
38775.29660398058
 20
879.9645601908286
 30
0.0
 11
38775.29660398058
 21
849.9645601908287
 31
0.0
  0
LINE
  5
18E
330
1D
100
AcDbEntity
  8
_0-1_荳_闊_
  6
Continuous
 62
     7
100
AcDbLine
 10
38775.29660398058
 20
849.9645601908287
 30
0.0
 11
37095.29660398058
 21
849.9645601908287
 31
0.0
  0
LINE
  5
18F
330
1D
100
AcDbEntity
  8
_0-1_荳_闊_
  6
Continuous
 62
     7
100
AcDbLine
 10
37095.29660398058
 20
849.9645601908287
 30
0.0
 11
37095.29660398058
 21
879.9645601908286
 31
0.0
  0
ARC
  5
190
330
1D
100
AcDbEntity
  8
_0-1_荳_闊_
  6
VW-01_遏_遐_邱__
 62
     7
100
AcDbCircle
 10
37075.29660398058
 20
474.9645601908286
 30
0.0
 40
4.999999999999545
100
AcDbArc
 50
179.9999999999947
 51
270.0000000000051
  0
LINE
  5
191
330
1D
100
AcDbEntity
  8
_0-1_荳_闊_
  6
VW-01_遏_遐_邱__
 62
     7
100
AcDbLine
 10
37095.29660398058
 20
469.9645601908287
 30
0.0
 11
37075.29660398058
 21
469.9645601908287
 31
0.0
  0
LINE
  5
192
330
1D
100
AcDbEntity
  8
_0-1_荳_闊_
  6
VW-01_遏_遐_邱__
 62
     7
100
AcDbLine
 10
37055.29660398058
 20
469.9645601908287
 30
0.0
 11
37035.29660398058
 21
469.9645601908287
 31
0.0
  0
ARC
  5
193
330
1D
100
AcDbEntity
  8
_0-1_荳_闊_
  6
VW-01_遏_遐_邱__
 62
     7
100
AcDbCircle
 10
37055.29660398058
 20
474.9645601908286
 30
0.0
 40
4.999999999999545
100
AcDbArc
 50
269.9999999999949
 51
0.000000000007875
  0
LINE
  5
194
330
1D
100
AcDbEntity
  8
_0-1_荳_闊_
  6
VW-01_遏_遐_邱__
 62
     7
100
AcDbLine
 10
37060.29660398058
 20
1023.397200038433
 30
0.0
 11
37060.29660398058
 21
474.9645601908286
 31
0.0
  0
LINE
  5
195
330
1D
100
AcDbEntity
  8
_0-1_荳_闊_
  6
VW-01_遏_遐_邱__
 62
     7
100
AcDbLine
 10
37070.29660398058
 20
474.9645601908232
 30
0.0
 11
37070.29660398058
 21
1023.397200038433
 31
0.0
  0
ARC
  5
196
330
1D
100
AcDbEntity
  8
_0-1_荳_闊_
  6
VW-01_遏_遐_邱__
 62
     7
100
AcDbCircle
 10
37055.29660398058
 20
1060.964560190829
 30
0.0
 40
4.999999999999545
100
AcDbArc
 50
359.9999999999949
 51
90.00000000000527
  0
LINE
  5
197
330
1D
100
AcDbEntity
  8
_0-1_荳_闊_
  6
VW-01_遏_遐_邱__
 62
     7
100
AcDbLine
 10
37035.29660398058
 20
1065.964560190828
 30
0.0
 11
37055.29660398058
 21
1065.964560190828
 31
0.0
  0
LINE
  5
198
330
1D
100
AcDbEntity
  8
_0-1_荳_闊_
  6
VW-01_遏_遐_邱__
 62
     7
100
AcDbLine
 10
37075.29660398058
 20
1065.964560190828
 30
0.0
 11
37095.29660398058
 21
1065.964560190828
 31
0.0
  0
ARC
  5
199
330
1D
100
AcDbEntity
  8
_0-1_荳_闊_
  6
VW-01_遏_遐_邱__
 62
     7
100
AcDbCircle
 10
37075.29660398058
 20
1060.964560190829
 30
0.0
 40
4.999999999999545
100
AcDbArc
 50
89.99999999999738
 51
180.0000000000052
  0
LINE
  5
19A
330
1D
100
AcDbEntity
  8
_0-1_荳_闊_
  6
VW-01_遏_遐_邱__
 62
     7
100
AcDbLine
 10
37070.29660398058
 20
1023.397200038433
 30
0.0
 11
37070.29660398058
 21
1060.964560190829
 31
0.0
  0
LINE
  5
19B
330
1D
100
AcDbEntity
  8
_0-1_荳_闊_
  6
VW-01_遏_遐_邱__
 62
     7
100
AcDbLine
 10
37060.29660398058
 20
1060.964560190829
 30
0.0
 11
37060.29660398058
 21
1023.397200038433
 31
0.0
  0
LINE
  5
19C
330
1D
100
AcDbEntity
  8
_0-1_荳_闊_
  6
Continuous
 62
     7
100
AcDbLine
 10
37632.20013765006
 20
734.2099771380872
 30
0.0
 11
37567.14413557214
 21
840.9645601908287
 31
0.0
  0
LINE
  5
19D
330
1D
100
AcDbEntity
  8
_0-1_荳_闊_
  6
Continuous
 62
     7
100
AcDbLine
 10
37572.2965131229
 20
824.1118925875362
 30
0.0
 11
37567.14413557214
 21
840.9645601908287
 31
0.0
  0
LINE
  5
19E
330
1D
100
AcDbEntity
  8
_0-1_荳_闊_
  6
Continuous
 62
     7
100
AcDbLine
 10
37567.14413557214
 20
840.9645601908287
 30
0.0
 11
37580.03255922263
 21
828.9459107002185
 31
0.0
  0
LINE
  5
19F
330
1D
100
AcDbEntity
  8
_0-1_荳_闊_
  6
Continuous
 62
     7
100
AcDbLine
 10
37580.03255922263
 20
828.9459107002185
 30
0.0
 11
37572.2965131229
 21
824.1118925875362
 31
0.0
  0
LINE
  5
1A0
330
1D
100
AcDbEntity
  8
_0-1_荳_闊_
  6
Continuous
 62
     7
100
AcDbLine
 10
37682.66022428844
 20
734.2099771380872
 30
0.0
 11
37632.20013765006
 21
734.2099771380872
 31
0.0
  0
LINE
  5
1A1
330
1D
100
AcDbEntity
  8
_0-1_荳_闊_
  6
Continuous
 62
     7
100
AcDbLine
 10
38832.29660398058
 20
1075.964560190828
 30
0.0
 11
38778.29660398058
 21
1075.964560190828
 31
0.0
  0
ARC
  5
1A2
330
1D
100
AcDbEntity
  8
_0-1_荳_闊_
  6
Continuous
 62
     7
100
AcDbCircle
 10
38778.29660398058
 20
1072.964560190828
 30
0.0
 40
2.999999999999943
100
AcDbArc
 50
89.99999999999888
 51
180.0000000000011
  0
LINE
  5
1A3
330
1D
100
AcDbEntity
  8
_0-1_荳_闊_
  6
Continuous
 62
     7
100
AcDbLine
 10
38775.29660398058
 20
1072.964560190828
 30
0.0
 11
38775.29660398058
 21
462.9645601908286
 31
0.0
  0
ARC
  5
1A4
330
1D
100
AcDbEntity
  8
_0-1_荳_闊_
  6
Continuous
 62
     7
100
AcDbCircle
 10
38778.29660398058
 20
462.9645601908286
 30
0.0
 40
3.000000000000454
100
AcDbArc
 50
180.0000000000086
 51
269.9999999999913
  0
LINE
  5
1A5
330
1D
100
AcDbEntity
  8
_0-1_荳_闊_
  6
Continuous
 62
     7
100
AcDbLine
 10
38778.29660398058
 20
459.9645601908287
 30
0.0
 11
38832.29660398058
 21
459.9645601908287
 31
0.0
  0
ARC
  5
1A6
330
1D
100
AcDbEntity
  8
_0-1_荳_闊_
  6
Continuous
 62
     7
100
AcDbCircle
 10
38832.29660398058
 20
462.9645601908286
 30
0.0
 40
3.000000000000454
100
AcDbArc
 50
270.0000000000087
 51
359.9999999999913
  0
LINE
  5
1A7
330
1D
100
AcDbEntity
  8
_0-1_荳_闊_
  6
Continuous
 62
     7
100
AcDbLine
 10
38835.29660398058
 20
462.9645601908286
 30
0.0
 11
38835.29660398058
 21
1072.964560190828
 31
0.0
  0
ARC
  5
1A8
330
1D
100
AcDbEntity
  8
_0-1_荳_闊_
  6
Continuous
 62
     7
100
AcDbCircle
 10
38832.29660398058
 20
1072.964560190828
 30
0.0
 40
2.999999999999943
100
AcDbArc
 50
359.9999999999989
 51
90.0000000000011
  0
ARC
  5
1A9
330
1D
100
AcDbEntity
  8
_0-1_荳_闊_
  6
VW-01_遏_遐_邱__
 62
     7
100
AcDbCircle
 10
38795.29660398059
 20
474.9645601908286
 30
0.0
 40
4.999999999999545
100
AcDbArc
 50
269.9999999999949
 51
0.0000000000052669
  0
LINE
  5
1AA
330
1D
100
AcDbEntity
  8
_0-1_荳_闊_
  6
VW-01_遏_遐_邱__
 62
     7
100
AcDbLine
 10
38775.29660398058
 20
469.9645601908287
 30
0.0
 11
38795.29660398058
 21
469.9645601908287
 31
0.0
  0
LINE
  5
1AB
330
1D
100
AcDbEntity
  8
_0-1_荳_闊_
  6
VW-01_遏_遐_邱__
 62
     7
100
AcDbLine
 10
38815.29660398058
 20
469.9645601908287
 30
0.0
 11
38835.29660398058
 21
469.9645601908287
 31
0.0
  0
ARC
  5
1AC
330
1D
100
AcDbEntity
  8
_0-1_荳_闊_
  6
VW-01_遏_遐_邱__
 62
     7
100
AcDbCircle
 10
38815.29660398058
 20
474.9645601908286
 30
0.0
 40
4.999999999999545
100
AcDbArc
 50
179.9999999999922
 51
270.0000000000051
  0
LINE
  5
1AD
330
1D
100
AcDbEntity
  8
_0-1_荳_闊_
  6
VW-01_遏_遐_邱__
 62
     7
100
AcDbLine
 10
38810.29660398058
 20
1023.397200038433
 30
0.0
 11
38810.29660398058
 21
474.9645601908286
 31
0.0
  0
LINE
  5
1AE
330
1D
100
AcDbEntity
  8
_0-1_荳_闊_
  6
VW-01_遏_遐_邱__
 62
     7
100
AcDbLine
 10
38800.29660398058
 20
474.9645601908232
 30
0.0
 11
38800.29660398058
 21
1023.397200038433
 31
0.0
  0
ARC
  5
1AF
330
1D
100
AcDbEntity
  8
_0-1_荳_闊_
  6
VW-01_遏_遐_邱__
 62
     7
100
AcDbCircle
 10
38815.29660398058
 20
1060.964560190829
 30
0.0
 40
4.999999999999545
100
AcDbArc
 50
89.99999999999479
 51
180.0000000000052
  0
LINE
  5
1B0
330
1D
100
AcDbEntity
  8
_0-1_荳_闊_
  6
VW-01_遏_遐_邱__
 62
     7
100
AcDbLine
 10
38835.29660398058
 20
1065.964560190828
 30
0.0
 11
38815.29660398058
 21
1065.964560190828
 31
0.0
  0
LINE
  5
1B1
330
1D
100
AcDbEntity
  8
_0-1_荳_闊_
  6
VW-01_遏_遐_邱__
 62
     7
100
AcDbLine
 10
38795.29660398058
 20
1065.964560190828
 30
0.0
 11
38775.29660398058
 21
1065.964560190828
 31
0.0
  0
ARC
  5
1B2
330
1D
100
AcDbEntity
  8
_0-1_荳_闊_
  6
VW-01_遏_遐_邱__
 62
     7
100
AcDbCircle
 10
38795.29660398059
 20
1060.964560190829
 30
0.0
 40
4.999999999999317
100
AcDbArc
 50
359.9999999999949
 51
90.00000000000266
  0
LINE
  5
1B3
330
1D
100
AcDbEntity
  8
_0-1_荳_闊_
  6
VW-01_遏_遐_邱__
 62
     7
100
AcDbLine
 10
38800.29660398058
 20
1023.397200038433
 30
0.0
 11
38800.29660398058
 21
1060.964560190829
 31
0.0
  0
LINE
  5
1B4
330
1D
100
AcDbEntity
  8
_0-1_荳_闊_
  6
VW-01_遏_遐_邱__
 62
     7
100
AcDbLine
 10
38810.29660398058
 20
1060.964560190829
 30
0.0
 11
38810.29660398058
 21
1023.397200038433
 31
0.0
  0
ARC
  5
1B5
330
1D
100
AcDbEntity
  8
_0-1_荳_闊_
  6
Continuous
 62
     7
100
AcDbCircle
 10
37093.90771509169
 20
2067.47397358532
 30
0.0
 40
1.5
100
AcDbArc
 50
0.0
 51
90.0
  0
LINE
  5
1B6
330
1D
100
AcDbEntity
  8
_0-1_荳_闊_
  6
Continuous
 62
     7
100
AcDbLine
 10
37095.40771509169
 20
2067.47397358532
 30
0.0
 11
37095.40771509169
 21
1608.47397358532
 31
0.0
  0
ARC
  5
1B7
330
1D
100
AcDbEntity
  8
_0-1_荳_闊_
  6
Continuous
 62
     7
100
AcDbCircle
 10
37093.90771509169
 20
1608.47397358532
 30
0.0
 40
1.5
100
AcDbArc
 50
270.0
 51
0.0
  0
LINE
  5
1B8
330
1D
100
AcDbEntity
  8
_0-1_荳_闊_
  6
Continuous
 62
     7
100
AcDbLine
 10
37093.90771509169
 20
1606.97397358532
 30
0.0
 11
37036.90771509169
 21
1606.97397358532
 31
0.0
  0
ARC
  5
1B9
330
1D
100
AcDbEntity
  8
_0-1_荳_闊_
  6
Continuous
 62
     7
100
AcDbCircle
 10
37036.90771509169
 20
1608.47397358532
 30
0.0
 40
1.5
100
AcDbArc
 50
180.0
 51
270.0
  0
LINE
  5
1BA
330
1D
100
AcDbEntity
  8
_0-1_荳_闊_
  6
Continuous
 62
     7
100
AcDbLine
 10
37035.40771509169
 20
1608.47397358532
 30
0.0
 11
37035.40771509169
 21
2067.47397358532
 31
0.0
  0
ARC
  5
1BB
330
1D
100
AcDbEntity
  8
_0-1_荳_闊_
  6
Continuous
 62
     7
100
AcDbCircle
 10
37036.90771509169
 20
2067.47397358532
 30
0.0
 40
1.5
100
AcDbArc
 50
89.99999999999998
 51
180.0
  0
LINE
  5
1BC
330
1D
100
AcDbEntity
  8
_0-1_荳_闊_
  6
Continuous
 62
     7
100
AcDbLine
 10
37036.90771509169
 20
2068.97397358532
 30
0.0
 11
37093.90771509169
 21
2068.97397358532
 31
0.0
  0
ARC
  5
1BD
330
1D
100
AcDbEntity
  8
_0-1_荳_闊_
  6
VW-01_遏_遐_邱__
 62
     7
100
AcDbCircle
 10
37055.40771509169
 20
2053.97397358532
 30
0.0
 40
4.999999999999545
100
AcDbArc
 50
359.9999999999949
 51
90.00000000000527
  0
LINE
  5
1BE
330
1D
100
AcDbEntity
  8
_0-1_荳_闊_
  6
VW-01_遏_遐_邱__
 62
     7
100
AcDbLine
 10
37035.40771509169
 20
2058.97397358532
 30
0.0
 11
37055.40771509169
 21
2058.97397358532
 31
0.0
  0
LINE
  5
1BF
330
1D
100
AcDbEntity
  8
_0-1_荳_闊_
  6
VW-01_遏_遐_邱__
 62
     7
100
AcDbLine
 10
37075.40771509169
 20
2058.97397358532
 30
0.0
 11
37095.40771509169
 21
2058.97397358532
 31
0.0
  0
ARC
  5
1C0
330
1D
100
AcDbEntity
  8
_0-1_荳_闊_
  6
VW-01_遏_遐_邱__
 62
     7
100
AcDbCircle
 10
37075.40771509169
 20
2053.97397358532
 30
0.0
 40
4.999999999999545
100
AcDbArc
 50
89.99999999999479
 51
180.0000000000103
  0
LINE
  5
1C1
330
1D
100
AcDbEntity
  8
_0-1_荳_闊_
  6
VW-01_遏_遐_邱__
 62
     7
100
AcDbLine
 10
37070.40771509169
 20
1659.541333737716
 30
0.0
 11
37070.40771509169
 21
2053.97397358532
 31
0.0
  0
LINE
  5
1C2
330
1D
100
AcDbEntity
  8
_0-1_荳_闊_
  6
VW-01_遏_遐_邱__
 62
     7
100
AcDbLine
 10
37060.4077150917
 20
2053.973973585326
 30
0.0
 11
37060.4077150917
 21
1659.541333737716
 31
0.0
  0
ARC
  5
1C3
330
1D
100
AcDbEntity
  8
_0-1_荳_闊_
  6
VW-01_遏_遐_邱__
 62
     7
100
AcDbCircle
 10
37075.40771509169
 20
1621.97397358532
 30
0.0
 40
4.999999999999545
100
AcDbArc
 50
179.9999999999947
 51
270.0000000000051
  0
LINE
  5
1C4
330
1D
100
AcDbEntity
  8
_0-1_荳_闊_
  6
VW-01_遏_遐_邱__
 62
     7
100
AcDbLine
 10
37095.40771509169
 20
1616.97397358532
 30
0.0
 11
37075.40771509169
 21
1616.97397358532
 31
0.0
  0
LINE
  5
1C5
330
1D
100
AcDbEntity
  8
_0-1_荳_闊_
  6
VW-01_遏_遐_邱__
 62
     7
100
AcDbLine
 10
37055.40771509169
 20
1616.97397358532
 30
0.0
 11
37035.40771509169
 21
1616.97397358532
 31
0.0
  0
ARC
  5
1C6
330
1D
100
AcDbEntity
  8
_0-1_荳_闊_
  6
VW-01_遏_遐_邱__
 62
     7
100
AcDbCircle
 10
37055.40771509169
 20
1621.97397358532
 30
0.0
 40
4.999999999999545
100
AcDbArc
 50
269.9999999999974
 51
0.0000000000052542
  0
LINE
  5
1C7
330
1D
100
AcDbEntity
  8
_0-1_荳_闊_
  6
VW-01_遏_遐_邱__
 62
     7
100
AcDbLine
 10
37060.4077150917
 20
1659.541333737716
 30
0.0
 11
37060.4077150917
 21
1621.97397358532
 31
0.0
  0
LINE
  5
1C8
330
1D
100
AcDbEntity
  8
_0-1_荳_闊_
  6
VW-01_遏_遐_邱__
 62
     7
100
AcDbLine
 10
37070.40771509169
 20
1621.97397358532
 30
0.0
 11
37070.40771509169
 21
1659.541333737716
 31
0.0
  0
ARC
  5
1C9
330
1D
100
AcDbEntity
  8
_0-1_荳_闊_
  6
VW-01_遏_遐_邱__
 62
     7
100
AcDbCircle
 10
38815.4077150917
 20
2053.97397358532
 30
0.0
 40
4.999999999999545
100
AcDbArc
 50
89.99999999999479
 51
180.0000000000052
  0
LINE
  5
1CA
330
1D
100
AcDbEntity
  8
_0-1_荳_闊_
  6
VW-01_遏_遐_邱__
 62
     7
100
AcDbLine
 10
38835.40771509169
 20
2058.97397358532
 30
0.0
 11
38815.4077150917
 21
2058.97397358532
 31
0.0
  0
LINE
  5
1CB
330
1D
100
AcDbEntity
  8
_0-1_荳_闊_
  6
VW-01_遏_遐_邱__
 62
     7
100
AcDbLine
 10
38795.40771509169
 20
2058.97397358532
 30
0.0
 11
38775.4077150917
 21
2058.97397358532
 31
0.0
  0
ARC
  5
1CC
330
1D
100
AcDbEntity
  8
_0-1_荳_闊_
  6
VW-01_遏_遐_邱__
 62
     7
100
AcDbCircle
 10
38795.40771509169
 20
2053.97397358532
 30
0.0
 40
4.999999999999545
100
AcDbArc
 50
359.9999999999895
 51
90.00000000000522
  0
LINE
  5
1CD
330
1D
100
AcDbEntity
  8
_0-1_荳_闊_
  6
VW-01_遏_遐_邱__
 62
     7
100
AcDbLine
 10
38800.4077150917
 20
1659.541333737716
 30
0.0
 11
38800.4077150917
 21
2053.97397358532
 31
0.0
  0
LINE
  5
1CE
330
1D
100
AcDbEntity
  8
_0-1_荳_闊_
  6
VW-01_遏_遐_邱__
 62
     7
100
AcDbLine
 10
38810.40771509169
 20
2053.973973585326
 30
0.0
 11
38810.40771509169
 21
1659.541333737716
 31
0.0
  0
ARC
  5
1CF
330
1D
100
AcDbEntity
  8
_0-1_荳_闊_
  6
VW-01_遏_遐_邱__
 62
     7
100
AcDbCircle
 10
38795.40771509169
 20
1621.97397358532
 30
0.0
 40
4.999999999999545
100
AcDbArc
 50
269.9999999999949
 51
0.0000000000052669
  0
LINE
  5
1D0
330
1D
100
AcDbEntity
  8
_0-1_荳_闊_
  6
VW-01_遏_遐_邱__
 62
     7
100
AcDbLine
 10
38775.4077150917
 20
1616.97397358532
 30
0.0
 11
38795.40771509169
 21
1616.97397358532
 31
0.0
  0
LINE
  5
1D1
330
1D
100
AcDbEntity
  8
_0-1_荳_闊_
  6
VW-01_遏_遐_邱__
 62
     7
100
AcDbLine
 10
38815.4077150917
 20
1616.97397358532
 30
0.0
 11
38835.40771509169
 21
1616.97397358532
 31
0.0
  0
ARC
  5
1D2
330
1D
100
AcDbEntity
  8
_0-1_荳_闊_
  6
VW-01_遏_遐_邱__
 62
     7
100
AcDbCircle
 10
38815.4077150917
 20
1621.97397358532
 30
0.0
 40
4.999999999999317
100
AcDbArc
 50
179.9999999999947
 51
270.0000000000027
  0
LINE
  5
1D3
330
1D
100
AcDbEntity
  8
_0-1_荳_闊_
  6
VW-01_遏_遐_邱__
 62
     7
100
AcDbLine
 10
38810.40771509169
 20
1659.541333737716
 30
0.0
 11
38810.40771509169
 21
1621.97397358532
 31
0.0
  0
LINE
  5
1D4
330
1D
100
AcDbEntity
  8
_0-1_荳_闊_
  6
VW-01_遏_遐_邱__
 62
     7
100
AcDbLine
 10
38800.4077150917
 20
1621.97397358532
 30
0.0
 11
38800.4077150917
 21
1659.541333737716
 31
0.0
  0
LINE
  5
1D5
330
1D
100
AcDbEntity
  8
_0-1_荳_闊_
  6
Continuous
 62
     7
100
AcDbLine
 10
36910.27016675386
 20
459.9645601908287
 30
0.0
 11
37210.3230412073
 21
459.9645601908287
 31
0.0
  0
LINE
  5
1D6
330
1D
100
AcDbEntity
  8
_0-1_荳_闊_
  6
Continuous
 62
     7
100
AcDbLine
 10
37210.3230412073
 20
459.9645601908287
 30
0.0
 11
37210.3230412073
 21
159.9645601908287
 31
0.0
  0
LINE
  5
1D7
330
1D
100
AcDbEntity
  8
_0-1_荳_闊_
  6
Continuous
 62
     7
100
AcDbLine
 10
37210.3230412073
 20
159.9645601908287
 30
0.0
 11
36910.27016675386
 21
159.9645601908287
 31
0.0
  0
LINE
  5
1D8
330
1D
100
AcDbEntity
  8
_0-1_荳_闊_
  6
Continuous
 62
     7
100
AcDbLine
 10
36910.27016675386
 20
159.9645601908287
 30
0.0
 11
36910.27016675386
 21
459.9645601908287
 31
0.0
  0
INSERT
  5
1D9
330
1D
100
AcDbEntity
  8
_0-6__0-2_蟇_豕__ts
100
AcDbBlockReference
  2
-010-_D16
 10
38417.20213671911
 20
826.9645601908287
 30
0.0
  0
LINE
  5
1DA
330
1D
100
AcDbEntity
  8
_0-1_荳_闊_
  6
Continuous
 62
     7
100
AcDbLine
 10
36872.76355744718
 20
159.9645601908287
 30
0.0
 11
37247.82965051398
 21
159.9645601908287
 31
0.0
  0
LINE
  5
1DB
330
1D
100
AcDbEntity
  8
_0-1_荳_闊_
  6
Continuous
 62
     7
100
AcDbLine
 10
37247.82965051398
 20
159.9645601908287
 30
0.0
 11
37247.82965051398
 21
109.9645601908287
 31
0.0
  0
LINE
  5
1DC
330
1D
100
AcDbEntity
  8
_0-1_荳_闊_
  6
Continuous
 62
     7
100
AcDbLine
 10
37247.82965051398
 20
109.9645601908287
 30
0.0
 11
36872.76355744718
 21
109.9645601908287
 31
0.0
  0
LINE
  5
1DD
330
1D
100
AcDbEntity
  8
_0-1_荳_闊_
  6
Continuous
 62
     7
100
AcDbLine
 10
36872.76355744718
 20
109.9645601908287
 30
0.0
 11
36872.76355744718
 21
159.9645601908287
 31
0.0
  0
LINE
  5
1DE
330
1D
100
AcDbEntity
  8
_0-1_荳_闊_
  6
Continuous
 62
     7
100
AcDbLine
 10
37147.77021903246
 20
109.9645601908287
 30
0.0
 11
37176.63773249195
 21
159.9645601908287
 31
0.0
  0
LINE
  5
1DF
330
1D
100
AcDbEntity
  8
_0-1_荳_闊_
  6
Continuous
 62
     7
100
AcDbLine
 10
37173.98709739733
 20
155.3735255346364
 30
0.0
 11
37169.39606274114
 21
159.9645601908287
 31
0.0
  0
LINE
  5
1E0
330
1D
100
AcDbEntity
  8
_0-1_荳_闊_
  6
Continuous
 62
     7
100
AcDbLine
 10
37150.42085412707
 20
114.555594847021
 30
0.0
 11
37155.01188878326
 21
109.9645601908287
 31
0.0
  0
LINE
  5
1E1
330
1D
100
AcDbEntity
  8
_0-1_荳_闊_
  6
Continuous
 62
     7
100
AcDbLine
 10
37214.32270557298
 20
109.9645601908287
 30
0.0
 11
37243.19021903246
 21
159.9645601908287
 31
0.0
  0
LINE
  5
1E2
330
1D
100
AcDbEntity
  8
_0-1_荳_闊_
  6
Continuous
 62
     7
100
AcDbLine
 10
37240.53958393785
 20
155.3735255346364
 30
0.0
 11
37235.94854928165
 21
159.9645601908287
 31
0.0
  0
LINE
  5
1E3
330
1D
100
AcDbEntity
  8
_0-1_荳_闊_
  6
Continuous
 62
     7
100
AcDbLine
 10
37216.97334066759
 20
114.555594847021
 30
0.0
 11
37221.56437532378
 21
109.9645601908287
 31
0.0
  0
LINE
  5
1E4
330
1D
100
AcDbEntity
  8
_0-1_荳_闊_
  6
Continuous
 62
     7
100
AcDbLine
 10
37245.50202675634
 20
300.9645601908287
 30
0.0
 11
37305.25134590204
 21
300.9645601908287
 31
0.0
  0
LINE
  5
1E5
330
1D
100
AcDbEntity
  8
_0-1_荳_闊_
  6
Continuous
 62
     7
100
AcDbLine
 10
37245.50202675634
 20
300.9645601908287
 30
0.0
 11
37191.00202675634
 21
223.9645601908287
 31
0.0
  0
LINE
  5
1E6
330
1D
100
AcDbEntity
  8
_0-1_荳_闊_
  6
Continuous
 62
     7
100
AcDbLine
 10
37204.69743346221
 20
235.0548818693569
 30
0.0
 11
37191.00202675634
 21
223.9645601908287
 31
0.0
  0
LINE
  5
1E7
330
1D
100
AcDbEntity
  8
_0-1_荳_闊_
  6
Continuous
 62
     7
100
AcDbLine
 10
37191.00202675634
 20
223.9645601908287
 30
0.0
 11
37197.31743603952
 21
240.4167638535128
 31
0.0
  0
LINE
  5
1E8
330
1D
100
AcDbEntity
  8
_0-1_荳_闊_
  6
Continuous
 62
     7
100
AcDbLine
 10
37197.31743603952
 20
240.4167638535128
 30
0.0
 11
37204.69743346221
 21
235.0548818693569
 31
0.0
  0
LINE
  5
1E9
330
1D
100
AcDbEntity
  8
_0-1_荳_闊_
  6
Continuous
 62
     7
100
AcDbLine
 10
37014.66524595143
 20
109.9645601908287
 30
0.0
 11
37043.53275941091
 21
159.9645601908287
 31
0.0
  0
LINE
  5
1EA
330
1D
100
AcDbEntity
  8
_0-1_荳_闊_
  6
Continuous
 62
     7
100
AcDbLine
 10
37040.8821243163
 20
155.3735255346364
 30
0.0
 11
37036.2910896601
 21
159.9645601908287
 31
0.0
  0
LINE
  5
1EB
330
1D
100
AcDbEntity
  8
_0-1_荳_闊_
  6
Continuous
 62
     7
100
AcDbLine
 10
37017.31588104604
 20
114.555594847021
 30
0.0
 11
37021.90691570223
 21
109.9645601908287
 31
0.0
  0
LINE
  5
1EC
330
1D
100
AcDbEntity
  8
_0-1_荳_闊_
  6
Continuous
 62
     7
100
AcDbLine
 10
37081.21773249195
 20
109.9645601908287
 30
0.0
 11
37110.08524595143
 21
159.9645601908287
 31
0.0
  0
LINE
  5
1ED
330
1D
100
AcDbEntity
  8
_0-1_荳_闊_
  6
Continuous
 62
     7
100
AcDbLine
 10
37107.43461085681
 20
155.3735255346364
 30
0.0
 11
37102.84357620062
 21
159.9645601908287
 31
0.0
  0
LINE
  5
1EE
330
1D
100
AcDbEntity
  8
_0-1_荳_闊_
  6
Continuous
 62
     7
100
AcDbLine
 10
37083.86836758656
 20
114.555594847021
 30
0.0
 11
37088.45940224275
 21
109.9645601908287
 31
0.0
  0
LINE
  5
1EF
330
1D
100
AcDbEntity
  8
_0-1_荳_闊_
  6
Continuous
 62
     7
100
AcDbLine
 10
36881.5602728704
 20
109.9645601908287
 30
0.0
 11
36910.42778632988
 21
159.9645601908287
 31
0.0
  0
LINE
  5
1F0
330
1D
100
AcDbEntity
  8
_0-1_荳_闊_
  6
Continuous
 62
     7
100
AcDbLine
 10
36907.77715123526
 20
155.3735255346364
 30
0.0
 11
36903.18611657907
 21
159.9645601908287
 31
0.0
  0
LINE
  5
1F1
330
1D
100
AcDbEntity
  8
_0-1_荳_闊_
  6
Continuous
 62
     7
100
AcDbLine
 10
36884.210907965
 20
114.555594847021
 30
0.0
 11
36888.8019426212
 21
109.9645601908287
 31
0.0
  0
LINE
  5
1F2
330
1D
100
AcDbEntity
  8
_0-1_荳_闊_
  6
Continuous
 62
     7
100
AcDbLine
 10
36948.11275941091
 20
109.9645601908287
 30
0.0
 11
36976.9802728704
 21
159.9645601908287
 31
0.0
  0
LINE
  5
1F3
330
1D
100
AcDbEntity
  8
_0-1_荳_闊_
  6
Continuous
 62
     7
100
AcDbLine
 10
36974.32963777578
 20
155.3735255346364
 30
0.0
 11
36969.73860311959
 21
159.9645601908287
 31
0.0
  0
LINE
  5
1F4
330
1D
100
AcDbEntity
  8
_0-1_荳_闊_
  6
Continuous
 62
     7
100
AcDbLine
 10
36950.76339450552
 20
114.555594847021
 30
0.0
 11
36955.35442916172
 21
109.9645601908287
 31
0.0
  0
INSERT
  5
1F5
330
1D
100
AcDbEntity
  8
_0-6__0-2_蟇_豕__ts
100
AcDbBlockReference
  2
-011-_D21
 10
38417.20213671911
 20
826.9645601908287
 30
0.0
  0
ARC
  5
1F6
330
1D
100
AcDbEntity
  8
_0-1_荳_闊_
  6
Continuous
 62
     7
100
AcDbCircle
 10
40157.59648030591
 20
479.0616681896117
 30
0.0
 40
9.166976179511975
100
AcDbArc
 50
277.0784883564522
 51
5.65245394921728
  0
LINE
  5
1F7
330
1D
100
AcDbEntity
  8
_0-1_荳_闊_
  6
Continuous
 62
     7
100
AcDbLine
 10
40158.72611667848
 20
469.9645601908287
 30
0.0
 11
39732.71165013237
 21
469.9645601908287
 31
0.0
  0
ARC
  5
1F8
330
1D
100
AcDbEntity
  8
_0-1_荳_闊_
  6
Continuous
 62
     7
100
AcDbCircle
 10
39733.84128650494
 20
479.0616681896135
 30
0.0
 40
9.166976179513017
100
AcDbArc
 50
174.3475460507891
 51
262.9215116435414
  0
LINE
  5
1F9
330
1D
100
AcDbEntity
  8
_0-1_荳_闊_
  6
Continuous
 62
     7
100
AcDbLine
 10
39724.71888340542
 20
479.9645601908287
 30
0.0
 11
39724.71888340542
 21
1040.964560190829
 31
0.0
  0
ARC
  5
1FA
330
1D
100
AcDbEntity
  8
_0-1_荳_闊_
  6
Continuous
 62
     7
100
AcDbCircle
 10
39747.52489115419
 20
1043.221790193871
 30
0.0
 40
22.9174404487803
100
AcDbArc
 50
97.07848835645314
 51
185.6524539492163
  0
LINE
  5
1FB
330
1D
100
AcDbEntity
  8
_0-1_荳_闊_
  6
Continuous
 62
     7
100
AcDbLine
 10
39744.70080022278
 20
1065.964560190828
 30
0.0
 11
40146.73696658807
 21
1065.964560190828
 31
0.0
  0
ARC
  5
1FC
330
1D
100
AcDbEntity
  8
_0-1_荳_闊_
  6
Continuous
 62
     7
100
AcDbCircle
 10
40143.91287565666
 20
1043.221790193871
 30
0.0
 40
22.9174404487803
100
AcDbArc
 50
354.3475460507837
 51
82.92151164354686
  0
LINE
  5
1FD
330
1D
100
AcDbEntity
  8
_0-1_荳_闊_
  6
Continuous
 62
     7
100
AcDbLine
 10
40166.71888340543
 20
1040.964560190829
 30
0.0
 11
40166.71888340543
 21
479.9645601908287
 31
0.0
  0
LINE
  5
1FE
330
1D
100
AcDbEntity
  8
_0-1_荳_闊_
  6
VW-01_遏_遐_邱__
 62
     7
100
AcDbLine
 10
39816.71888340543
 20
469.9645601908287
 30
0.0
 11
39816.71888340543
 21
459.9645601908287
 31
0.0
  0
LINE
  5
1FF
330
1D
100
AcDbEntity
  8
_0-1_荳_闊_
  6
VW-01_遏_遐_邱__
 62
     7
100
AcDbLine
 10
39804.71888340542
 20
469.9645601908287
 30
0.0
 11
39804.71888340542
 21
459.9645601908287
 31
0.0
  0
LINE
  5
200
330
1D
100
AcDbEntity
  8
_0-1_荳_闊_
  6
VW-01_遏_遐_邱__
 62
     7
100
AcDbLine
 10
39800.71888340543
 20
469.9645601908287
 30
0.0
 11
39820.71888340543
 21
469.9645601908287
 31
0.0
  0
LINE
  5
201
330
1D
100
AcDbEntity
  8
_0-1_荳_闊_
  6
VW-01_遏_遐_邱__
 62
     7
100
AcDbLine
 10
40074.71888340543
 20
469.9645601908287
 30
0.0
 11
40074.71888340543
 21
459.9645601908287
 31
0.0
  0
LINE
  5
202
330
1D
100
AcDbEntity
  8
_0-1_荳_闊_
  6
VW-01_遏_遐_邱__
 62
     7
100
AcDbLine
 10
40086.71888340542
 20
469.9645601908287
 30
0.0
 11
40086.71888340542
 21
459.9645601908287
 31
0.0
  0
LINE
  5
203
330
1D
100
AcDbEntity
  8
_0-1_荳_闊_
  6
VW-01_遏_遐_邱__
 62
     7
100
AcDbLine
 10
40090.71888340542
 20
469.9645601908287
 30
0.0
 11
40070.71888340542
 21
469.9645601908287
 31
0.0
  0
INSERT
  5
204
330
1D
100
AcDbEntity
  8
_0-6__0-2_蟇_豕__ts
100
AcDbBlockReference
  2
-012-_D26
 10
38417.20213671911
 20
826.9645601908287
 30
0.0
  0
INSERT
  5
205
330
1D
100
AcDbEntity
  8
_0-6__0-2_蟇_豕__ts
100
AcDbBlockReference
  2
-013-_D27
 10
38417.20213671911
 20
826.9645601908287
 30
0.0
  0
LINE
  5
206
330
1D
100
AcDbEntity
  8
_0-1_荳_闊_
  6
VW-01_遏_遐_邱__
 62
     7
100
AcDbLine
 10
38775.29660398058
 20
879.9645601908286
 30
0.0
 11
38800.29660398058
 21
879.9645601908286
 31
0.0
  0
LINE
  5
207
330
1D
100
AcDbEntity
  8
_0-1_荳_闊_
  6
VW-01_遏_遐_邱__
 62
     7
100
AcDbLine
 10
38775.29660398058
 20
799.9645601908286
 30
0.0
 11
38800.29660398058
 21
799.9645601908286
 31
0.0
  0
LINE
  5
208
330
1D
100
AcDbEntity
  8
_0-1_荳_闊_
  6
VW-01_遏_遐_邱__
 62
     7
100
AcDbLine
 10
37095.29660398058
 20
879.9645601908286
 30
0.0
 11
37070.29660398058
 21
879.9645601908286
 31
0.0
  0
LINE
  5
209
330
1D
100
AcDbEntity
  8
_0-1_荳_闊_
  6
VW-01_遏_遐_邱__
 62
     7
100
AcDbLine
 10
37095.29660398058
 20
799.9645601908286
 30
0.0
 11
37070.29660398058
 21
799.9645601908286
 31
0.0
  0
LINE
  5
20A
330
1D
100
AcDbEntity
  8
_0-1_荳_闊_
  6
Continuous
 62
     7
100
AcDbLine
 10
37989.00512810197
 20
722.7099771380872
 30
0.0
 11
37936.44912602406
 21
848.4645601908287
 31
0.0
  0
LINE
  5
20B
330
1D
100
AcDbEntity
  8
_0-1_荳_闊_
  6
Continuous
 62
     7
100
AcDbLine
 10
37938.90173121626
 20
831.0133674652934
 30
0.0
 11
37936.44912602406
 21
848.4645601908287
 31
0.0
  0
LINE
  5
20C
330
1D
100
AcDbEntity
  8
_0-1_荳_闊_
  6
Continuous
 62
     7
100
AcDbLine
 10
37936.44912602406
 20
848.4645601908287
 30
0.0
 11
37947.29874078873
 21
834.5776865602765
 31
0.0
  0
LINE
  5
20D
330
1D
100
AcDbEntity
  8
_0-1_荳_闊_
  6
Continuous
 62
     7
100
AcDbLine
 10
37947.29874078873
 20
834.5776865602765
 30
0.0
 11
37938.90173121626
 21
831.0133674652934
 31
0.0
  0
LINE
  5
20E
330
1D
100
AcDbEntity
  8
_0-1_荳_闊_
  6
Continuous
 62
     7
100
AcDbLine
 10
38039.46521474037
 20
722.7099771380872
 30
0.0
 11
37989.00512810197
 21
722.7099771380872
 31
0.0
  0
LINE
  5
20F
330
1D
100
AcDbEntity
  8
_0-1_荳_闊_
  6
繝_繧_繝_繧_繧_繝__5
 62
     7
100
AcDbLine
 10
37920.29660398058
 20
849.9645601908287
 30
0.0
 11
37950.29660398058
 21
849.9645601908287
 31
0.0
  0
LINE
  5
210
330
1D
100
AcDbEntity
  8
_0-1_荳_闊_
  6
繝_繧_繝_繧_繧_繝__5
 62
     7
100
AcDbLine
 10
37950.29660398058
 20
849.9645601908287
 30
0.0
 11
37950.29660398058
 21
846.9645601908286
 31
0.0
  0
LINE
  5
211
330
1D
100
AcDbEntity
  8
_0-1_荳_闊_
  6
繝_繧_繝_繧_繧_繝__5
 62
     7
100
AcDbLine
 10
37950.29660398058
 20
846.9645601908286
 30
0.0
 11
37920.29660398058
 21
846.9645601908286
 31
0.0
  0
LINE
  5
212
330
1D
100
AcDbEntity
  8
_0-1_荳_闊_
  6
繝_繧_繝_繧_繧_繝__5
 62
     7
100
AcDbLine
 10
37920.29660398058
 20
846.9645601908286
 30
0.0
 11
37920.29660398058
 21
849.9645601908287
 31
0.0
  0
LINE
  5
213
330
1D
100
AcDbEntity
  8
_0-1_荳_闊_
  6
VW-01_遏_遐_邱__
 62
     7
100
AcDbLine
 10
36928.40771509169
 20
2138.97397358532
 30
0.0
 11
37228.4077150917
 21
2138.97397358532
 31
0.0
  0
LINE
  5
214
330
1D
100
AcDbEntity
  8
_0-1_荳_闊_
  6
VW-01_遏_遐_邱__
 62
     7
100
AcDbLine
 10
37228.4077150917
 20
2138.97397358532
 30
0.0
 11
37228.4077150917
 21
1538.97397358532
 31
0.0
  0
LINE
  5
215
330
1D
100
AcDbEntity
  8
_0-1_荳_闊_
  6
VW-01_遏_遐_邱__
 62
     7
100
AcDbLine
 10
37228.4077150917
 20
1538.97397358532
 30
0.0
 11
36928.40771509169
 21
1538.97397358532
 31
0.0
  0
LINE
  5
216
330
1D
100
AcDbEntity
  8
_0-1_荳_闊_
  6
VW-01_遏_遐_邱__
 62
     7
100
AcDbLine
 10
36928.40771509169
 20
1538.97397358532
 30
0.0
 11
36928.40771509169
 21
2138.97397358532
 31
0.0
  0
LINE
  5
217
330
1D
100
AcDbEntity
  8
_0-1_荳_闊_
  6
Continuous
 62
     7
100
AcDbLine
 10
38201.70259667481
 20
1512.006599229848
 30
0.0
 11
38265.70259667482
 21
1512.006599229848
 31
0.0
  0
LINE
  5
218
330
1D
100
AcDbEntity
  8
_0-1_荳_闊_
  6
Continuous
 62
     7
100
AcDbLine
 10
38201.70259667481
 20
1512.006599229848
 30
0.0
 11
38020.44865860419
 21
1784.964560190832
 31
0.0
  0
LINE
  5
219
330
1D
100
AcDbEntity
  8
_0-1_荳_闊_
  6
Continuous
 62
     7
100
AcDbLine
 10
38026.1860470832
 20
1768.301974160642
 30
0.0
 11
38020.44865860419
 21
1784.964560190832
 31
0.0
  0
LINE
  5
21A
330
1D
100
AcDbEntity
  8
_0-1_荳_闊_
  6
Continuous
 62
     7
100
AcDbLine
 10
38020.44865860419
 20
1784.964560190832
 30
0.0
 11
38033.74867579348
 21
1773.403031635447
 31
0.0
  0
LINE
  5
21B
330
1D
100
AcDbEntity
  8
_0-1_荳_闊_
  6
Continuous
 62
     7
100
AcDbLine
 10
38033.74867579348
 20
1773.403031635447
 30
0.0
 11
38026.1860470832
 21
1768.301974160642
 31
0.0
  0
LINE
  5
21C
330
1D
100
AcDbEntity
  8
_0-1_荳_闊_
  6
Continuous
 62
     7
100
AcDbLine
 10
40224.00853735086
 20
965.2542141362701
 30
0.0
 11
40309.79576809476
 21
965.2542141362701
 31
0.0
  0
LINE
  5
21D
330
1D
100
AcDbEntity
  8
_0-1_荳_闊_
  6
Continuous
 62
     7
100
AcDbLine
 10
40224.00853735086
 20
965.2542141362701
 30
0.0
 11
40070.71888340542
 21
811.9645601908286
 31
0.0
  0
LINE
  5
21E
330
1D
100
AcDbEntity
  8
_0-1_荳_闊_
  6
Continuous
 62
     7
100
AcDbLine
 10
40085.98058546743
 20
820.7759079846182
 30
0.0
 11
40070.71888340542
 21
811.9645601908286
 31
0.0
  0
LINE
  5
21F
330
1D
100
AcDbEntity
  8
_0-1_荳_闊_
  6
Continuous
 62
     7
100
AcDbLine
 10
40070.71888340542
 20
811.9645601908286
 30
0.0
 11
40079.53023119921
 21
827.2262622528341
 31
0.0
  0
LINE
  5
220
330
1D
100
AcDbEntity
  8
_0-1_荳_闊_
  6
Continuous
 62
     7
100
AcDbLine
 10
40079.53023119921
 20
827.2262622528341
 30
0.0
 11
40085.98058546743
 21
820.7759079846182
 31
0.0
  0
ARC
  5
221
330
1D
100
AcDbEntity
  8
_0-1_荳_闊_
  6
Continuous
 62
     7
100
AcDbCircle
 10
39733.84128650494
 20
479.0616681896117
 30
0.0
 40
9.166976179511808
100
AcDbArc
 50
174.3475460507817
 51
262.9215116435488
  0
LINE
  5
222
330
1D
100
AcDbEntity
  8
_0-1_荳_闊_
  6
Continuous
 62
     7
100
AcDbLine
 10
39732.71165013237
 20
469.9645601908287
 30
0.0
 11
40158.72611667848
 21
469.9645601908287
 31
0.0
  0
ARC
  5
223
330
1D
100
AcDbEntity
  8
_0-1_荳_闊_
  6
Continuous
 62
     7
100
AcDbCircle
 10
40157.59648030591
 20
479.0616681896117
 30
0.0
 40
9.166976179512738
100
AcDbArc
 50
277.0784883564569
 51
5.652453949212585
  0
LINE
  5
224
330
1D
100
AcDbEntity
  8
_0-1_荳_闊_
  6
Continuous
 62
     7
100
AcDbLine
 10
40166.71888340543
 20
479.9645601908287
 30
0.0
 11
40166.71888340543
 21
1040.964560190829
 31
0.0
  0
ARC
  5
225
330
1D
100
AcDbEntity
  8
_0-1_荳_闊_
  6
Continuous
 62
     7
100
AcDbCircle
 10
40143.91287565666
 20
1043.221790193869
 30
0.0
 40
22.91744044878065
100
AcDbArc
 50
354.3475460507845
 51
82.92151164354597
  0
LINE
  5
226
330
1D
100
AcDbEntity
  8
_0-1_荳_闊_
  6
Continuous
 62
     7
100
AcDbLine
 10
40146.73696658807
 20
1065.964560190828
 30
0.0
 11
39744.70080022278
 21
1065.964560190828
 31
0.0
  0
ARC
  5
227
330
1D
100
AcDbEntity
  8
_0-1_荳_闊_
  6
Continuous
 62
     7
100
AcDbCircle
 10
39747.52489115419
 20
1043.221790193869
 30
0.0
 40
22.91744044878063
100
AcDbArc
 50
97.07848835645396
 51
185.6524539492155
  0
LINE
  5
228
330
1D
100
AcDbEntity
  8
_0-1_荳_闊_
  6
Continuous
 62
     7
100
AcDbLine
 10
39724.71888340542
 20
1040.964560190829
 30
0.0
 11
39724.71888340542
 21
479.9645601908287
 31
0.0
  0
ARC
  5
229
330
1D
100
AcDbEntity
  8
_0-1_荳_闊_
  6
Continuous
 62
     7
100
AcDbCircle
 10
39746.73607759867
 20
1044.026256690377
 30
0.0
 40
32.16325091564952
100
AcDbArc
 50
96.78034212562147
 51
185.4623927276135
  0
LINE
  5
22A
330
1D
100
AcDbEntity
  8
_0-1_荳_闊_
  6
Continuous
 62
     7
100
AcDbLine
 10
39742.93877869338
 20
1075.964560190828
 30
0.0
 11
40148.49898811747
 21
1075.964560190828
 31
0.0
  0
ARC
  5
22B
330
1D
100
AcDbEntity
  8
_0-1_荳_闊_
  6
Continuous
 62
     7
100
AcDbCircle
 10
40144.70168921218
 20
1044.026256690377
 30
0.0
 40
32.16325091565011
100
AcDbArc
 50
354.5376072723875
 51
83.21965787437743
  0
LINE
  5
22C
330
1D
100
AcDbEntity
  8
_0-1_荳_闊_
  6
Continuous
 62
     7
100
AcDbLine
 10
40176.71888340542
 20
1040.964560190829
 30
0.0
 11
40176.71888340542
 21
479.9645601908287
 31
0.0
  0
ARC
  5
22D
330
1D
100
AcDbEntity
  8
_0-1_荳_闊_
  6
Continuous
 62
     7
100
AcDbCircle
 10
40158.42334386642
 20
478.2150193339439
 30
0.0
 40
18.37900052322782
100
AcDbArc
 50
276.7803421256233
 51
5.462392727615261
  0
LINE
  5
22E
330
1D
100
AcDbEntity
  8
_0-1_荳_闊_
  6
Continuous
 62
     7
100
AcDbLine
 10
40160.59322895516
 20
459.9645601908287
 30
0.0
 11
39730.84453785569
 21
459.9645601908287
 31
0.0
  0
ARC
  5
22F
330
1D
100
AcDbEntity
  8
_0-1_荳_闊_
  6
Continuous
 62
     7
100
AcDbCircle
 10
39733.01442294442
 20
478.2150193339439
 30
0.0
 40
18.37900052322858
100
AcDbArc
 50
174.537607272387
 51
263.2196578743744
  0
LINE
  5
230
330
1D
100
AcDbEntity
  8
_0-1_荳_闊_
  6
Continuous
 62
     7
100
AcDbLine
 10
39714.71888340543
 20
479.9645601908287
 30
0.0
 11
39714.71888340543
 21
1040.964560190829
 31
0.0
  0
LINE
  5
231
330
1D
100
AcDbEntity
  8
_0-1_荳_闊_
  6
Continuous
 62
     7
100
AcDbLine
 10
39818.33546092911
 20
801.2944340580489
 30
0.0
 11
39812.60997425099
 21
801.3582510489177
 31
0.0
  0
LINE
  5
232
330
1D
100
AcDbEntity
  8
_0-1_荳_闊_
  6
Continuous
 62
     7
100
AcDbLine
 10
39812.60997425099
 20
801.3582510489177
 30
0.0
 11
39806.92658673962
 21
800.4880193552562
 31
0.0
  0
LINE
  5
233
330
1D
100
AcDbEntity
  8
_0-1_荳_闊_
  6
Continuous
 62
     7
100
AcDbLine
 10
39806.92658673962
 20
800.4880193552562
 30
0.0
 11
39801.38352978407
 21
798.7127467001883
 31
0.0
  0
LINE
  5
234
330
1D
100
AcDbEntity
  8
_0-1_荳_闊_
  6
Continuous
 62
     7
100
AcDbLine
 10
39801.38352978407
 20
798.7127467001883
 30
0.0
 11
39796.06967940307
 21
796.0498377175845
 31
0.0
  0
LINE
  5
235
330
1D
100
AcDbEntity
  8
_0-1_荳_闊_
  6
Continuous
 62
     7
100
AcDbLine
 10
39796.06967940307
 20
796.0498377175845
 30
0.0
 11
39791.08794467087
 21
792.5457047644431
 31
0.0
  0
LINE
  5
236
330
1D
100
AcDbEntity
  8
_0-1_荳_闊_
  6
Continuous
 62
     7
100
AcDbLine
 10
39791.08794467087
 20
792.5457047644431
 30
0.0
 11
39786.51784623581
 21
788.2699663762541
 31
0.0
  0
LINE
  5
237
330
1D
100
AcDbEntity
  8
_0-1_荳_闊_
  6
Continuous
 62
     7
100
AcDbLine
 10
39786.51784623581
 20
788.2699663762541
 30
0.0
 11
39782.43422706096
 21
783.2864395438883
 31
0.0
  0
LINE
  5
238
330
1D
100
AcDbEntity
  8
_0-1_荳_闊_
  6
Continuous
 62
     7
100
AcDbLine
 10
39782.43422706096
 20
783.2864395438883
 30
0.0
 11
39778.91660779466
 21
777.6821474367097
 31
0.0
  0
LINE
  5
239
330
1D
100
AcDbEntity
  8
_0-1_荳_闊_
  6
Continuous
 62
     7
100
AcDbLine
 10
39778.91660779466
 20
777.6821474367097
 30
0.0
 11
39776.01176528885
 21
771.561517857961
 31
0.0
  0
LINE
  5
23A
330
1D
100
AcDbEntity
  8
_0-1_荳_闊_
  6
Continuous
 62
     7
100
AcDbLine
 10
39776.01176528885
 20
771.561517857961
 30
0.0
 11
39773.78518713624
 21
765.0173755216292
 31
0.0
  0
LINE
  5
23B
330
1D
100
AcDbEntity
  8
_0-1_荳_闊_
  6
Continuous
 62
     7
100
AcDbLine
 10
39773.78518713624
 20
765.0173755216292
 30
0.0
 11
39772.26026176282
 21
758.1715528648274
 31
0.0
  0
LINE
  5
23C
330
1D
100
AcDbEntity
  8
_0-1_荳_闊_
  6
Continuous
 62
     7
100
AcDbLine
 10
39772.26026176282
 20
758.1715528648274
 30
0.0
 11
39771.47441065013
 21
751.1342792354225
 31
0.0
  0
LINE
  5
23D
330
1D
100
AcDbEntity
  8
_0-1_荳_闊_
  6
Continuous
 62
     7
100
AcDbLine
 10
39771.47441065013
 20
751.1342792354225
 30
0.0
 11
39759.55099108923
 21
546.6530374035555
 31
0.0
  0
LINE
  5
23E
330
1D
100
AcDbEntity
  8
_0-1_荳_闊_
  6
Continuous
 62
     7
100
AcDbLine
 10
39759.55099108923
 20
546.6530374035555
 30
0.0
 11
39759.46679275573
 21
543.7406620021029
 31
0.0
  0
LINE
  5
23F
330
1D
100
AcDbEntity
  8
_0-1_荳_闊_
  6
Continuous
 62
     7
100
AcDbLine
 10
39759.46679275573
 20
543.7406620021029
 30
0.0
 11
39759.55099108923
 21
540.834088145275
 31
0.0
  0
LINE
  5
240
330
1D
100
AcDbEntity
  8
_0-1_荳_闊_
  6
Continuous
 62
     7
100
AcDbLine
 10
39759.55099108923
 20
540.834088145275
 30
0.0
 11
39759.80826377493
 21
537.9449189223196
 31
0.0
  0
LINE
  5
241
330
1D
100
AcDbEntity
  8
_0-1_荳_闊_
  6
Continuous
 62
     7
100
AcDbLine
 10
39759.80826377493
 20
537.9449189223196
 30
0.0
 11
39760.23393312763
 21
535.0789558778633
 31
0.0
  0
LINE
  5
242
330
1D
100
AcDbEntity
  8
_0-1_荳_闊_
  6
Continuous
 62
     7
100
AcDbLine
 10
39760.23393312763
 20
535.0789558778633
 30
0.0
 11
39760.82799914734
 21
532.2652067350263
 31
0.0
  0
LINE
  5
243
330
1D
100
AcDbEntity
  8
_0-1_荳_闊_
  6
Continuous
 62
     7
100
AcDbLine
 10
39760.82799914734
 20
532.2652067350263
 30
0.0
 11
39761.58578414885
 21
529.5094730384317
 31
0.0
  0
LINE
  5
244
330
1D
100
AcDbEntity
  8
_0-1_荳_闊_
  6
Continuous
 62
     7
100
AcDbLine
 10
39761.58578414885
 20
529.5094730384317
 30
0.0
 11
39762.49793276179
 21
526.8349609665802
 31
0.0
  0
LINE
  5
245
330
1D
100
AcDbEntity
  8
_0-1_荳_闊_
  6
Continuous
 62
     7
100
AcDbLine
 10
39762.49793276179
 20
526.8349609665802
 30
0.0
 11
39763.56912267135
 21
524.24167051947
 31
0.0
  0
LINE
  5
246
330
1D
100
AcDbEntity
  8
_0-1_荳_闊_
  6
Continuous
 62
     7
100
AcDbLine
 10
39763.56912267135
 20
524.24167051947
 30
0.0
 11
39764.78999850712
 21
521.7586094202233
 31
0.0
  0
LINE
  5
247
330
1D
100
AcDbEntity
  8
_0-1_荳_闊_
  6
Continuous
 62
     7
100
AcDbLine
 10
39764.78999850712
 20
521.7586094202233
 30
0.0
 11
39766.15120489874
 21
519.3857776688401
 31
0.0
  0
LINE
  5
248
330
1D
100
AcDbEntity
  8
_0-1_荳_闊_
  6
Continuous
 62
     7
100
AcDbLine
 10
39766.15120489874
 20
519.3857776688401
 30
0.0
 11
39767.64806416099
 21
517.1463814438193
 31
0.0
  0
LINE
  5
249
330
1D
100
AcDbEntity
  8
_0-1_荳_闊_
  6
Continuous
 62
     7
100
AcDbLine
 10
39767.64806416099
 20
517.1463814438193
 30
0.0
 11
39769.2712209235
 21
515.046222289784
 31
0.0
  0
LINE
  5
24A
330
1D
100
AcDbEntity
  8
_0-1_荳_闊_
  6
Continuous
 62
     7
100
AcDbLine
 10
39769.2712209235
 20
515.046222289784
 30
0.0
 11
39771.01599750106
 21
513.1027048406067
 31
0.0
  0
LINE
  5
24B
330
1D
100
AcDbEntity
  8
_0-1_荳_闊_
  6
Continuous
 62
     7
100
AcDbLine
 10
39771.01599750106
 20
513.1027048406067
 30
0.0
 11
39772.86836083811
 21
511.3158290962892
 31
0.0
  0
LINE
  5
24C
330
1D
100
AcDbEntity
  8
_0-1_荳_闊_
  6
Continuous
 62
     7
100
AcDbLine
 10
39772.86836083811
 20
511.3158290962892
 30
0.0
 11
39774.82363324943
 21
509.702999690704
 31
0.0
  0
LINE
  5
24D
330
1D
100
AcDbEntity
  8
_0-1_荳_闊_
  6
Continuous
 62
     7
100
AcDbLine
 10
39774.82363324943
 20
509.702999690704
 30
0.0
 11
39776.86310399425
 21
508.2700181684758
 31
0.0
  0
LINE
  5
24E
330
1D
100
AcDbEntity
  8
_0-1_荳_闊_
  6
Continuous
 62
     7
100
AcDbLine
 10
39776.86310399425
 20
508.2700181684758
 30
0.0
 11
39778.98209538739
 21
507.0284876188525
 31
0.0
  0
LINE
  5
24F
330
1D
100
AcDbEntity
  8
_0-1_荳_闊_
  6
Continuous
 62
     7
100
AcDbLine
 10
39778.98209538739
 20
507.0284876188525
 30
0.0
 11
39781.17125205843
 21
505.9784080418357
 31
0.0
  0
LINE
  5
250
330
1D
100
AcDbEntity
  8
_0-1_荳_闊_
  6
Continuous
 62
     7
100
AcDbLine
 10
39781.17125205843
 20
505.9784080418357
 30
0.0
 11
39783.41654095182
 21
505.1255809820467
 31
0.0
  0
LINE
  5
251
330
1D
100
AcDbEntity
  8
_0-1_荳_闊_
  6
Continuous
 62
     7
100
AcDbLine
 10
39783.41654095182
 20
505.1255809820467
 30
0.0
 11
39785.70392901195
 21
504.4816095287387
 31
0.0
  0
LINE
  5
252
330
1D
100
AcDbEntity
  8
_0-1_荳_闊_
  6
Continuous
 62
     7
100
AcDbLine
 10
39785.70392901195
 20
504.4816095287387
 30
0.0
 11
39788.02406086844
 21
504.046493681908
 31
0.0
  0
LINE
  5
253
330
1D
100
AcDbEntity
  8
_0-1_荳_闊_
  6
Continuous
 62
     7
100
AcDbLine
 10
39788.02406086844
 20
504.046493681908
 30
0.0
 11
39790.36290346572
 21
503.8202334415545
 31
0.0
  0
LINE
  5
254
330
1D
100
AcDbEntity
  8
_0-1_荳_闊_
  6
Continuous
 62
     7
100
AcDbLine
 10
39790.36290346572
 20
503.8202334415545
 30
0.0
 11
39792.70642374818
 21
503.802828807682
 31
0.0
  0
LINE
  5
255
330
1D
100
AcDbEntity
  8
_0-1_荳_闊_
  6
Continuous
 62
     7
100
AcDbLine
 10
39792.70642374818
 20
503.802828807682
 30
0.0
 11
39795.04994403066
 21
504.0000813249116
 31
0.0
  0
LINE
  5
256
330
1D
100
AcDbEntity
  8
_0-1_荳_闊_
  6
Continuous
 62
     7
100
AcDbLine
 10
39795.04994403066
 20
504.0000813249116
 30
0.0
 11
40101.23718381021
 21
533.1934538749301
 31
0.0
  0
LINE
  5
257
330
1D
100
AcDbEntity
  8
_0-1_荳_闊_
  6
Continuous
 62
     7
100
AcDbLine
 10
40101.23718381021
 20
533.1934538749301
 30
0.0
 11
40103.29068761062
 21
533.5415465523947
 31
0.0
  0
LINE
  5
258
330
1D
100
AcDbEntity
  8
_0-1_荳_闊_
  6
Continuous
 62
     7
100
AcDbLine
 10
40103.29068761062
 20
533.5415465523947
 30
0.0
 11
40105.32548067025
 21
534.0520824793438
 31
0.0
  0
LINE
  5
259
330
1D
100
AcDbEntity
  8
_0-1_荳_闊_
  6
Continuous
 62
     7
100
AcDbLine
 10
40105.32548067025
 20
534.0520824793438
 30
0.0
 11
40107.32752993352
 21
534.7250616557739
 31
0.0
  0
LINE
  5
25A
330
1D
100
AcDbEntity
  8
_0-1_荳_闊_
  6
Continuous
 62
     7
100
AcDbLine
 10
40107.32752993352
 20
534.7250616557739
 30
0.0
 11
40109.28748003003
 21
535.5604840816886
 31
0.0
  0
LINE
  5
25B
330
1D
100
AcDbEntity
  8
_0-1_荳_闊_
  6
Continuous
 62
     7
100
AcDbLine
 10
40109.28748003003
 20
535.5604840816886
 30
0.0
 11
40111.20533095979
 21
536.5467466678382
 31
0.0
  0
LINE
  5
25C
330
1D
100
AcDbEntity
  8
_0-1_荳_闊_
  6
Continuous
 62
     7
100
AcDbLine
 10
40111.20533095979
 20
536.5467466678382
 30
0.0
 11
40113.06704966722
 21
537.6838494142211
 31
0.0
  0
LINE
  5
25D
330
1D
100
AcDbEntity
  8
_0-1_荳_闊_
  6
Continuous
 62
     7
100
AcDbLine
 10
40113.06704966722
 20
537.6838494142211
 30
0.0
 11
40114.86328078193
 21
538.9659907762161
 31
0.0
  0
LINE
  5
25E
330
1D
100
AcDbEntity
  8
_0-1_荳_闊_
  6
Continuous
 62
     7
100
AcDbLine
 10
40114.86328078193
 20
538.9659907762161
 30
0.0
 11
40116.59402430391
 21
540.3931707538212
 31
0.0
  0
LINE
  5
25F
330
1D
100
AcDbEntity
  8
_0-1_荳_闊_
  6
Continuous
 62
     7
100
AcDbLine
 10
40116.59402430391
 20
540.3931707538212
 30
0.0
 11
40118.24056949239
 21
541.9479847131624
 31
0.0
  0
LINE
  5
260
330
1D
100
AcDbEntity
  8
_0-1_荳_闊_
  6
Continuous
 62
     7
100
AcDbLine
 10
40118.24056949239
 20
541.9479847131624
 30
0.0
 11
40119.80759403257
 21
543.6362341988642
 31
0.0
  0
LINE
  5
261
330
1D
100
AcDbEntity
  8
_0-1_荳_闊_
  6
Continuous
 62
     7
100
AcDbLine
 10
40119.80759403257
 20
543.6362341988642
 30
0.0
 11
40121.28574255404
 21
545.446316121679
 31
0.0
  0
LINE
  5
262
330
1D
100
AcDbEntity
  8
_0-1_荳_闊_
  6
Continuous
 62
     7
100
AcDbLine
 10
40121.28574255404
 20
545.446316121679
 30
0.0
 11
40122.66098200124
 21
547.372428936982
 31
0.0
  0
LINE
  5
263
330
1D
100
AcDbEntity
  8
_0-1_荳_闊_
  6
Continuous
 62
     7
100
AcDbLine
 10
40122.66098200124
 20
547.372428936982
 30
0.0
 11
40123.93799005935
 21
549.3971680109007
 31
0.0
  0
LINE
  5
264
330
1D
100
AcDbEntity
  8
_0-1_荳_闊_
  6
Continuous
 62
     7
100
AcDbLine
 10
40123.93799005935
 20
549.3971680109007
 30
0.0
 11
40125.10741135799
 21
551.526334888058
 31
0.0
  0
LINE
  5
265
330
1D
100
AcDbEntity
  8
_0-1_荳_闊_
  6
Continuous
 62
     7
100
AcDbLine
 10
40125.10741135799
 20
551.526334888058
 30
0.0
 11
40126.15989052677
 21
553.7425249345814
 31
0.0
  0
LINE
  5
266
330
1D
100
AcDbEntity
  8
_0-1_荳_闊_
  6
Continuous
 62
     7
100
AcDbLine
 10
40126.15989052677
 20
553.7425249345814
 30
0.0
 11
40127.10010525087
 21
556.0399366058482
 31
0.0
  0
LINE
  5
267
330
1D
100
AcDbEntity
  8
_0-1_荳_闊_
  6
Continuous
 62
     7
100
AcDbLine
 10
40127.10010525087
 20
556.0399366058482
 30
0.0
 11
40127.91402247472
 21
558.4011652679818
 31
0.0
  0
LINE
  5
268
330
1D
100
AcDbEntity
  8
_0-1_荳_闊_
  6
Continuous
 62
     7
100
AcDbLine
 10
40127.91402247472
 20
558.4011652679818
 30
0.0
 11
40128.60631988352
 21
560.8262109209826
 31
0.0
  0
LINE
  5
269
330
1D
100
AcDbEntity
  8
_0-1_荳_闊_
  6
Continuous
 62
     7
100
AcDbLine
 10
40128.60631988352
 20
560.8262109209826
 30
0.0
 11
40129.17231979205
 21
563.3034704756046
 31
0.0
  0
LINE
  5
26A
330
1D
100
AcDbEntity
  8
_0-1_荳_闊_
  6
Continuous
 62
     7
100
AcDbLine
 10
40129.17231979205
 20
563.3034704756046
 30
0.0
 11
40129.60734451515
 21
565.8213408425981
 31
0.0
  0
LINE
  5
26B
330
1D
100
AcDbEntity
  8
_0-1_荳_闊_
  6
Continuous
 62
     7
100
AcDbLine
 10
40129.60734451515
 20
565.8213408425981
 30
0.0
 11
40129.91607173798
 21
568.3624173880889
 31
0.0
  0
LINE
  5
26C
330
1D
100
AcDbEntity
  8
_0-1_荳_闊_
  6
Continuous
 62
     7
100
AcDbLine
 10
40129.91607173798
 20
568.3624173880889
 30
0.0
 11
40130.08446840499
 21
570.926700112077
 31
0.0
  0
LINE
  5
26D
330
1D
100
AcDbEntity
  8
_0-1_荳_闊_
  6
Continuous
 62
     7
100
AcDbLine
 10
40130.08446840499
 20
570.926700112077
 30
0.0
 11
40130.12656757174
 21
573.5025859253128
 31
0.0
  0
LINE
  5
26E
330
1D
100
AcDbEntity
  8
_0-1_荳_闊_
  6
Continuous
 62
     7
100
AcDbLine
 10
40130.12656757174
 20
573.5025859253128
 30
0.0
 11
40130.02833618266
 21
576.0726701939256
 31
0.0
  0
LINE
  5
26F
330
1D
100
AcDbEntity
  8
_0-1_荳_闊_
  6
Continuous
 62
     7
100
AcDbLine
 10
40130.02833618266
 20
576.0726701939256
 30
0.0
 11
40118.72237106743
 21
755.6014685962163
 31
0.0
  0
LINE
  5
270
330
1D
100
AcDbEntity
  8
_0-1_荳_闊_
  6
Continuous
 62
     7
100
AcDbLine
 10
40118.72237106743
 20
755.6014685962163
 30
0.0
 11
40118.34347856667
 21
758.9895706568695
 31
0.0
  0
LINE
  5
271
330
1D
100
AcDbEntity
  8
_0-1_荳_闊_
  6
Continuous
 62
     7
100
AcDbLine
 10
40118.34347856667
 20
758.9895706568695
 30
0.0
 11
40117.65118115788
 21
762.2906495481584
 31
0.0
  0
LINE
  5
272
330
1D
100
AcDbEntity
  8
_0-1_荳_闊_
  6
Continuous
 62
     7
100
AcDbLine
 10
40117.65118115788
 20
762.2906495481584
 30
0.0
 11
40116.64547884105
 21
765.4756975469572
 31
0.0
  0
LINE
  5
273
330
1D
100
AcDbEntity
  8
_0-1_荳_闊_
  6
Continuous
 62
     7
100
AcDbLine
 10
40116.64547884105
 20
765.4756975469572
 30
0.0
 11
40115.34508235697
 21
768.4866992070255
 31
0.0
  0
LINE
  5
274
330
1D
100
AcDbEntity
  8
_0-1_荳_闊_
  6
Continuous
 62
     7
100
AcDbLine
 10
40115.34508235697
 20
768.4866992070255
 30
0.0
 11
40113.76402476122
 21
771.288845260613
 31
0.0
  0
LINE
  5
275
330
1D
100
AcDbEntity
  8
_0-1_荳_闊_
  6
Continuous
 62
     7
100
AcDbLine
 10
40113.76402476122
 20
771.288845260613
 30
0.0
 11
40111.93037216495
 21
773.8357233507286
 31
0.0
  0
LINE
  5
276
330
1D
100
AcDbEntity
  8
_0-1_荳_闊_
  6
Continuous
 62
     7
100
AcDbLine
 10
40111.93037216495
 20
773.8357233507286
 30
0.0
 11
40109.86751299415
 21
776.1041272988713
 31
0.0
  0
LINE
  5
277
330
1D
100
AcDbEntity
  8
_0-1_荳_闊_
  6
Continuous
 62
     7
100
AcDbLine
 10
40109.86751299415
 20
776.1041272988713
 30
0.0
 11
40107.60351335999
 21
778.0476447480487
 31
0.0
  0
LINE
  5
278
330
1D
100
AcDbEntity
  8
_0-1_荳_闊_
  6
Continuous
 62
     7
100
AcDbLine
 10
40107.60351335999
 20
778.0476447480487
 30
0.0
 11
40105.17111705882
 21
779.6546726090091
 31
0.0
  0
LINE
  5
279
330
1D
100
AcDbEntity
  8
_0-1_荳_闊_
  6
Continuous
 62
     7
100
AcDbLine
 10
40105.17111705882
 20
779.6546726090091
 30
0.0
 11
40102.60306788701
 21
780.8904016140076
 31
0.0
  0
LINE
  5
27A
330
1D
100
AcDbEntity
  8
_0-1_荳_闊_
  6
Continuous
 62
     7
100
AcDbLine
 10
40102.60306788701
 20
780.8904016140076
 30
0.0
 11
40099.93678732612
 21
781.7374271291719
 31
0.0
  0
LINE
  5
27B
330
1D
100
AcDbEntity
  8
_0-1_荳_闊_
  6
Continuous
 62
     7
100
AcDbLine
 10
40099.93678732612
 20
781.7374271291719
 30
0.0
 11
40097.20501917251
 21
782.1957491544999
 31
0.0
  0
LINE
  5
27C
330
1D
100
AcDbEntity
  8
_0-1_荳_闊_
  6
Continuous
 62
     7
100
AcDbLine
 10
40097.20501917251
 20
782.1957491544999
 30
0.0
 11
39818.33546092911
 21
801.2944340580489
 31
0.0
  0
LINE
  5
27D
330
1D
100
AcDbEntity
  8
_0-1_荳_闊_
  6
Continuous
 62
     7
100
AcDbLine
 10
39767.57322119788
 20
898.4006879813824
 30
0.0
 11
39768.93910527469
 21
894.9603720191079
 31
0.0
  0
LINE
  5
27E
330
1D
100
AcDbEntity
  8
_0-1_荳_闊_
  6
Continuous
 62
     7
100
AcDbLine
 10
39768.93910527469
 20
894.9603720191079
 30
0.0
 11
39770.65581574109
 21
891.7724232479958
 31
0.0
  0
LINE
  5
27F
330
1D
100
AcDbEntity
  8
_0-1_荳_闊_
  6
Continuous
 62
     7
100
AcDbLine
 10
39770.65581574109
 20
891.7724232479958
 30
0.0
 11
39772.69528648591
 21
888.8890555696653
 31
0.0
  0
LINE
  5
280
330
1D
100
AcDbEntity
  8
_0-1_荳_闊_
  6
Continuous
 62
     7
100
AcDbLine
 10
39772.69528648591
 20
888.8890555696653
 30
0.0
 11
39775.0200960276
 21
886.3624828857355
 31
0.0
  0
LINE
  5
281
330
1D
100
AcDbEntity
  8
_0-1_荳_闊_
  6
Continuous
 62
     7
100
AcDbLine
 10
39775.0200960276
 20
886.3624828857355
 30
0.0
 11
39777.5928228846
 21
884.2304152362666
 31
0.0
  0
LINE
  5
282
330
1D
100
AcDbEntity
  8
_0-1_荳_闊_
  6
Continuous
 62
     7
100
AcDbLine
 10
39777.5928228846
 20
884.2304152362666
 30
0.0
 11
39780.36201251978
 21
882.5363642059382
 31
0.0
  0
LINE
  5
283
330
1D
100
AcDbEntity
  8
_0-1_荳_闊_
  6
Continuous
 62
     7
100
AcDbLine
 10
39780.36201251978
 20
882.5363642059382
 30
0.0
 11
39783.29024345156
 21
881.3035359732531
 31
0.0
  0
LINE
  5
284
330
1D
100
AcDbEntity
  8
_0-1_荳_闊_
  6
Continuous
 62
     7
100
AcDbLine
 10
39783.29024345156
 20
881.3035359732531
 30
0.0
 11
39786.32138345763
 21
880.5551367167044
 31
0.0
  0
LINE
  5
285
330
1D
100
AcDbEntity
  8
_0-1_荳_闊_
  6
Continuous
 62
     7
100
AcDbLine
 10
39786.32138345763
 20
880.5551367167044
 30
0.0
 11
39789.40865568603
 21
880.3027695255423
 31
0.0
  0
LINE
  5
286
330
1D
100
AcDbEntity
  8
_0-1_荳_闊_
  6
Continuous
 62
     7
100
AcDbLine
 10
39789.40865568603
 20
880.3027695255423
 30
0.0
 11
40088.10692146911
 21
880.3027695255423
 31
0.0
  0
LINE
  5
287
330
1D
100
AcDbEntity
  8
_0-1_荳_闊_
  6
Continuous
 62
     7
100
AcDbLine
 10
40088.10692146911
 20
880.3027695255423
 30
0.0
 11
40091.57776388347
 21
880.587045212138
 31
0.0
  0
LINE
  5
288
330
1D
100
AcDbEntity
  8
_0-1_荳_闊_
  6
Continuous
 62
     7
100
AcDbLine
 10
40091.57776388347
 20
880.587045212138
 30
0.0
 11
40094.9877963903
 21
881.4282691826774
 31
0.0
  0
LINE
  5
289
330
1D
100
AcDbEntity
  8
_0-1_荳_闊_
  6
Continuous
 62
     7
100
AcDbLine
 10
40094.9877963903
 20
881.4282691826774
 30
0.0
 11
40098.28088676726
 21
882.814838347911
 31
0.0
  0
LINE
  5
28A
330
1D
100
AcDbEntity
  8
_0-1_荳_闊_
  6
Continuous
 62
     7
100
AcDbLine
 10
40098.28088676726
 20
882.814838347911
 30
0.0
 11
40101.40090279202
 21
884.7235465293415
 31
0.0
  0
LINE
  5
28B
330
1D
100
AcDbEntity
  8
_0-1_荳_闊_
  6
Continuous
 62
     7
100
AcDbLine
 10
40101.40090279202
 20
884.7235465293415
 30
0.0
 11
40104.29638992745
 21
887.1195844592202
 31
0.0
  0
LINE
  5
28C
330
1D
100
AcDbEntity
  8
_0-1_荳_闊_
  6
Continuous
 62
     7
100
AcDbLine
 10
40104.29638992745
 20
887.1195844592202
 30
0.0
 11
40106.9112159512
 21
889.9652420974925
 31
0.0
  0
LINE
  5
28D
330
1D
100
AcDbEntity
  8
_0-1_荳_闊_
  6
Continuous
 62
     7
100
AcDbLine
 10
40106.9112159512
 20
889.9652420974925
 30
0.0
 11
40109.20328169652
 21
893.2083055425373
 31
0.0
  0
LINE
  5
28E
330
1D
100
AcDbEntity
  8
_0-1_荳_闊_
  6
Continuous
 62
     7
100
AcDbLine
 10
40109.20328169652
 20
893.2083055425373
 30
0.0
 11
40111.13516568187
 21
896.7965608927334
 31
0.0
  0
LINE
  5
28F
330
1D
100
AcDbEntity
  8
_0-1_荳_闊_
  6
Continuous
 62
     7
100
AcDbLine
 10
40111.13516568187
 20
896.7965608927334
 30
0.0
 11
40112.67412411088
 21
900.6661911572118
 31
0.0
  0
LINE
  5
290
330
1D
100
AcDbEntity
  8
_0-1_荳_闊_
  6
Continuous
 62
     7
100
AcDbLine
 10
40112.67412411088
 20
900.6661911572118
 30
0.0
 11
40113.79209087238
 21
904.7533793451075
 31
0.0
  0
LINE
  5
291
330
1D
100
AcDbEntity
  8
_0-1_荳_闊_
  6
Continuous
 62
     7
100
AcDbLine
 10
40113.79209087238
 20
904.7533793451075
 30
0.0
 11
40114.47035522558
 21
908.9827053763
 31
0.0
  0
LINE
  5
292
330
1D
100
AcDbEntity
  8
_0-1_荳_闊_
  6
Continuous
 62
     7
100
AcDbLine
 10
40114.47035522558
 20
908.9827053763
 30
0.0
 11
40114.56858661468
 21
910.7608788036813
 31
0.0
  0
LINE
  5
293
330
1D
100
AcDbEntity
  8
_0-1_荳_闊_
  6
Continuous
 62
     7
100
AcDbLine
 10
40114.56858661468
 20
910.7608788036813
 30
0.0
 11
40126.40780784208
 21
986.0910349793012
 31
0.0
  0
LINE
  5
294
330
1D
100
AcDbEntity
  8
_0-1_荳_闊_
  6
Continuous
 62
     7
100
AcDbLine
 10
40126.40780784208
 20
986.0910349793012
 30
0.0
 11
40126.35167561974
 21
988.0490562900376
 31
0.0
  0
LINE
  5
295
330
1D
100
AcDbEntity
  8
_0-1_荳_闊_
  6
Continuous
 62
     7
100
AcDbLine
 10
40126.35167561974
 20
988.0490562900376
 30
0.0
 11
40126.19263432313
 21
989.9983752838398
 31
0.0
  0
LINE
  5
296
330
1D
100
AcDbEntity
  8
_0-1_荳_闊_
  6
Continuous
 62
     7
100
AcDbLine
 10
40126.19263432313
 20
989.9983752838398
 30
0.0
 11
40125.93068395223
 21
991.9302896437676
 31
0.0
  0
LINE
  5
297
330
1D
100
AcDbEntity
  8
_0-1_荳_闊_
  6
Continuous
 62
     7
100
AcDbLine
 10
40125.93068395223
 20
991.9302896437676
 30
0.0
 11
40125.57050219225
 21
993.8389978251962
 31
0.0
  0
LINE
  5
298
330
1D
100
AcDbEntity
  8
_0-1_荳_闊_
  6
Continuous
 62
     7
100
AcDbLine
 10
40125.57050219225
 20
993.8389978251962
 30
0.0
 11
40125.10741135799
 21
995.7128967388799
 31
0.0
  0
LINE
  5
299
330
1D
100
AcDbEntity
  8
_0-1_荳_闊_
  6
Continuous
 62
     7
100
AcDbLine
 10
40125.10741135799
 20
995.7128967388799
 30
0.0
 11
40124.55076681984
 21
997.5432840678804
 31
0.0
  0
LINE
  5
29A
330
1D
100
AcDbEntity
  8
_0-1_荳_闊_
  6
Continuous
 62
     7
100
AcDbLine
 10
40124.55076681984
 20
997.5432840678804
 30
0.0
 11
40123.89589089259
 21
999.3272590398865
 31
0.0
  0
LINE
  5
29B
330
1D
100
AcDbEntity
  8
_0-1_荳_闊_
  6
Continuous
 62
     7
100
AcDbLine
 10
40123.89589089259
 20
999.3272590398865
 30
0.0
 11
40123.14746126147
 21
1001.053218565648
 31
0.0
  0
LINE
  5
29C
330
1D
100
AcDbEntity
  8
_0-1_荳_闊_
  6
Continuous
 62
     7
100
AcDbLine
 10
40123.14746126147
 20
1001.053218565648
 30
0.0
 11
40122.31015561165
 21
1002.715361100539
 31
0.0
  0
LINE
  5
29D
330
1D
100
AcDbEntity
  8
_0-1_荳_闊_
  6
Continuous
 62
     7
100
AcDbLine
 10
40122.31015561165
 20
1002.715361100539
 30
0.0
 11
40121.38865162832
 21
1004.307885099941
 31
0.0
  0
LINE
  5
29E
330
1D
100
AcDbEntity
  8
_0-1_荳_闊_
  6
Continuous
 62
     7
100
AcDbLine
 10
40121.38865162832
 20
1004.307885099941
 30
0.0
 11
40120.38762699669
 21
1005.819187474599
 31
0.0
  0
LINE
  5
29F
330
1D
100
AcDbEntity
  8
_0-1_荳_闊_
  6
Continuous
 62
     7
100
AcDbLine
 10
40120.38762699669
 20
1005.819187474599
 30
0.0
 11
40119.30240403155
 21
1007.249268224515
 31
0.0
  0
LINE
  5
2A0
330
1D
100
AcDbEntity
  8
_0-1_荳_闊_
  6
Continuous
 62
     7
100
AcDbLine
 10
40119.30240403155
 20
1007.249268224515
 30
0.0
 11
40118.1516934737
 21
1008.586524260441
 31
0.0
  0
LINE
  5
2A1
330
1D
100
AcDbEntity
  8
_0-1_荳_闊_
  6
Continuous
 62
     7
100
AcDbLine
 10
40118.1516934737
 20
1008.586524260441
 30
0.0
 11
40116.92613995273
 21
1009.828054810063
 31
0.0
  0
LINE
  5
2A2
330
1D
100
AcDbEntity
  8
_0-1_荳_闊_
  6
Continuous
 62
     7
100
AcDbLine
 10
40116.92613995273
 20
1009.828054810063
 30
0.0
 11
40115.64445420942
 21
1010.968058328759
 31
0.0
  0
LINE
  5
2A3
330
1D
100
AcDbEntity
  8
_0-1_荳_闊_
  6
Continuous
 62
     7
100
AcDbLine
 10
40115.64445420942
 20
1010.968058328759
 30
0.0
 11
40114.30195855858
 21
1012.000733271905
 31
0.0
  0
LINE
  5
2A4
330
1D
100
AcDbEntity
  8
_0-1_荳_闊_
  6
Continuous
 62
     7
100
AcDbLine
 10
40114.30195855858
 20
1012.000733271905
 30
0.0
 11
40112.9080083706
 21
1012.923178867186
 31
0.0
  0
LINE
  5
2A5
330
1D
100
AcDbEntity
  8
_0-1_荳_闊_
  6
Continuous
 62
     7
100
AcDbLine
 10
40112.9080083706
 20
1012.923178867186
 30
0.0
 11
40111.46728133069
 21
1013.729593569978
 31
0.0
  0
LINE
  5
2A6
330
1D
100
AcDbEntity
  8
_0-1_荳_闊_
  6
Continuous
 62
     7
100
AcDbLine
 10
40111.46728133069
 20
1013.729593569978
 30
0.0
 11
40109.98913280921
 21
1014.419977380283
 31
0.0
  0
LINE
  5
2A7
330
1D
100
AcDbEntity
  8
_0-1_荳_闊_
  6
Continuous
 62
     7
100
AcDbLine
 10
40109.98913280921
 20
1014.419977380283
 30
0.0
 11
40108.47824049137
 21
1014.988528753474
 31
0.0
  0
LINE
  5
2A8
330
1D
100
AcDbEntity
  8
_0-1_荳_闊_
  6
Continuous
 62
     7
100
AcDbLine
 10
40108.47824049137
 20
1014.988528753474
 30
0.0
 11
40106.93928206237
 21
1015.432346917241
 31
0.0
  0
LINE
  5
2A9
330
1D
100
AcDbEntity
  8
_0-1_荳_闊_
  6
Continuous
 62
     7
100
AcDbLine
 10
40106.93928206237
 20
1015.432346917241
 30
0.0
 11
40105.37693520738
 21
1015.751431871584
 31
0.0
  0
LINE
  5
2AA
330
1D
100
AcDbEntity
  8
_0-1_荳_闊_
  6
Continuous
 62
     7
100
AcDbLine
 10
40105.37693520738
 20
1015.751431871584
 30
0.0
 11
40103.80523298202
 21
1015.942882844188
 31
0.0
  0
LINE
  5
2AB
330
1D
100
AcDbEntity
  8
_0-1_荳_闊_
  6
Continuous
 62
     7
100
AcDbLine
 10
40103.80523298202
 20
1015.942882844188
 30
0.0
 11
40102.22885307145
 21
1016.006699835057
 31
0.0
  0
LINE
  5
2AC
330
1D
100
AcDbEntity
  8
_0-1_荳_闊_
  6
Continuous
 62
     7
100
AcDbLine
 10
40102.22885307145
 20
1016.006699835057
 30
0.0
 11
39778.64997973857
 21
1031.000791916838
 31
0.0
  0
LINE
  5
2AD
330
1D
100
AcDbEntity
  8
_0-1_荳_闊_
  6
Continuous
 62
     7
100
AcDbLine
 10
39778.64997973857
 20
1031.000791916838
 30
0.0
 11
39777.06892214281
 21
1030.936974925971
 31
0.0
  0
LINE
  5
2AE
330
1D
100
AcDbEntity
  8
_0-1_荳_闊_
  6
Continuous
 62
     7
100
AcDbLine
 10
39777.06892214281
 20
1030.936974925971
 30
0.0
 11
39775.49721991745
 21
1030.742623181053
 31
0.0
  0
LINE
  5
2AF
330
1D
100
AcDbEntity
  8
_0-1_荳_闊_
  6
Continuous
 62
     7
100
AcDbLine
 10
39775.49721991745
 20
1030.742623181053
 30
0.0
 11
39773.93487306247
 21
1030.423538226711
 31
0.0
  0
LINE
  5
2B0
330
1D
100
AcDbEntity
  8
_0-1_荳_闊_
  6
Continuous
 62
     7
100
AcDbLine
 10
39773.93487306247
 20
1030.423538226711
 30
0.0
 11
39772.39591463346
 21
1029.97681929063
 31
0.0
  0
LINE
  5
2B1
330
1D
100
AcDbEntity
  8
_0-1_荳_闊_
  6
Continuous
 62
     7
100
AcDbLine
 10
39772.39591463346
 20
1029.97681929063
 30
0.0
 11
39770.88034463042
 21
1029.408267917439
 31
0.0
  0
LINE
  5
2B2
330
1D
100
AcDbEntity
  8
_0-1_荳_闊_
  6
Continuous
 62
     7
100
AcDbLine
 10
39770.88034463042
 20
1029.408267917439
 30
0.0
 11
39769.39751842375
 21
1028.717884107134
 31
0.0
  0
LINE
  5
2B3
330
1D
100
AcDbEntity
  8
_0-1_荳_闊_
  6
Continuous
 62
     7
100
AcDbLine
 10
39769.39751842375
 20
1028.717884107134
 30
0.0
 11
39767.95679138383
 21
1027.905667859717
 31
0.0
  0
LINE
  5
2B4
330
1D
100
AcDbEntity
  8
_0-1_荳_闊_
  6
Continuous
 62
     7
100
AcDbLine
 10
39767.95679138383
 20
1027.905667859717
 30
0.0
 11
39766.56284119586
 21
1026.980321492125
 31
0.0
  0
LINE
  5
2B5
330
1D
100
AcDbEntity
  8
_0-1_荳_闊_
  6
Continuous
 62
     7
100
AcDbLine
 10
39766.56284119586
 20
1026.980321492125
 30
0.0
 11
39765.22034554502
 21
1025.944745776667
 31
0.0
  0
LINE
  5
2B6
330
1D
100
AcDbEntity
  8
_0-1_荳_闊_
  6
Continuous
 62
     7
100
AcDbLine
 10
39765.22034554502
 20
1025.944745776667
 30
0.0
 11
39763.93398211652
 21
1024.801841485659
 31
0.0
  0
LINE
  5
2B7
330
1D
100
AcDbEntity
  8
_0-1_荳_闊_
  6
Continuous
 62
     7
100
AcDbLine
 10
39763.93398211652
 20
1024.801841485659
 30
0.0
 11
39762.70842859555
 21
1023.557410163725
 31
0.0
  0
LINE
  5
2B8
330
1D
100
AcDbEntity
  8
_0-1_荳_闊_
  6
Continuous
 62
     7
100
AcDbLine
 10
39762.70842859555
 20
1023.557410163725
 30
0.0
 11
39761.55304035249
 21
1022.214352583174
 31
0.0
  0
LINE
  5
2B9
330
1D
100
AcDbEntity
  8
_0-1_荳_闊_
  6
Continuous
 62
     7
100
AcDbLine
 10
39761.55304035249
 20
1022.214352583174
 30
0.0
 11
39760.47249507255
 21
1020.784271833258
 31
0.0
  0
LINE
  5
2BA
330
1D
100
AcDbEntity
  8
_0-1_荳_闊_
  6
Continuous
 62
     7
100
AcDbLine
 10
39760.47249507255
 20
1020.784271833258
 30
0.0
 11
39759.47147044092
 21
1019.267167913975
 31
0.0
  0
LINE
  5
2BB
330
1D
100
AcDbEntity
  8
_0-1_荳_闊_
  6
Continuous
 62
     7
100
AcDbLine
 10
39759.47147044092
 20
1019.267167913975
 30
0.0
 11
39758.5452887724
 21
1017.671743142262
 31
0.0
  0
LINE
  5
2BC
330
1D
100
AcDbEntity
  8
_0-1_荳_闊_
  6
Continuous
 62
     7
100
AcDbLine
 10
39758.5452887724
 20
1017.671743142262
 30
0.0
 11
39757.71266080777
 21
1016.003799062746
 31
0.0
  0
LINE
  5
2BD
330
1D
100
AcDbEntity
  8
_0-1_荳_闊_
  6
Continuous
 62
     7
100
AcDbLine
 10
39757.71266080777
 20
1016.003799062746
 30
0.0
 11
39756.96423117664
 21
1014.274938764673
 31
0.0
  0
LINE
  5
2BE
330
1D
100
AcDbEntity
  8
_0-1_荳_闊_
  6
Continuous
 62
     7
100
AcDbLine
 10
39756.96423117664
 20
1014.274938764673
 30
0.0
 11
39756.3140329346
 21
1012.485162248042
 31
0.0
  0
LINE
  5
2BF
330
1D
100
AcDbEntity
  8
_0-1_荳_闊_
  6
Continuous
 62
     7
100
AcDbLine
 10
39756.3140329346
 20
1012.485162248042
 30
0.0
 11
39755.75738839645
 21
1010.648973374418
 31
0.0
  0
LINE
  5
2C0
330
1D
100
AcDbEntity
  8
_0-1_荳_闊_
  6
Continuous
 62
     7
100
AcDbLine
 10
39755.75738839645
 20
1010.648973374418
 30
0.0
 11
39755.29897524738
 21
1008.772173688421
 31
0.0
  0
LINE
  5
2C1
330
1D
100
AcDbEntity
  8
_0-1_荳_闊_
  6
Continuous
 62
     7
100
AcDbLine
 10
39755.29897524738
 20
1008.772173688421
 30
0.0
 11
39754.93879348741
 21
1006.860564734679
 31
0.0
  0
LINE
  5
2C2
330
1D
100
AcDbEntity
  8
_0-1_荳_闊_
  6
Continuous
 62
     7
100
AcDbLine
 10
39754.93879348741
 20
1006.860564734679
 30
0.0
 11
39754.68152080171
 21
1004.922848830127
 31
0.0
  0
LINE
  5
2C3
330
1D
100
AcDbEntity
  8
_0-1_荳_闊_
  6
Continuous
 62
     7
100
AcDbLine
 10
39754.68152080171
 20
1004.922848830127
 30
0.0
 11
39754.52715719029
 21
1002.970629064013
 31
0.0
  0
LINE
  5
2C4
330
1D
100
AcDbEntity
  8
_0-1_荳_闊_
  6
Continuous
 62
     7
100
AcDbLine
 10
39754.52715719029
 20
1002.970629064013
 30
0.0
 11
39754.47570265314
 21
1001.009706980965
 31
0.0
  0
LINE
  5
2C5
330
1D
100
AcDbEntity
  8
_0-1_荳_闊_
  6
Continuous
 62
     7
100
AcDbLine
 10
39754.47570265314
 20
1001.009706980965
 30
0.0
 11
39765.77231239798
 21
909.6179745126738
 31
0.0
  0
LINE
  5
2C6
330
1D
100
AcDbEntity
  8
_0-1_荳_闊_
  6
Continuous
 62
     7
100
AcDbLine
 10
39765.77231239798
 20
909.6179745126738
 30
0.0
 11
39765.97345286134
 21
905.7918558328765
 31
0.0
  0
LINE
  5
2C7
330
1D
100
AcDbEntity
  8
_0-1_荳_闊_
  6
Continuous
 62
     7
100
AcDbLine
 10
39765.97345286134
 20
905.7918558328765
 30
0.0
 11
39766.57687425144
 21
902.0295541439482
 31
0.0
  0
LINE
  5
2C8
330
1D
100
AcDbEntity
  8
_0-1_荳_闊_
  6
Continuous
 62
     7
100
AcDbLine
 10
39766.57687425144
 20
902.0295541439482
 30
0.0
 11
39767.57322119788
 21
898.4006879813824
 31
0.0
  0
INSERT
  5
2C9
330
1D
100
AcDbEntity
  8
_0-6__0-2_蟇_豕__ts
100
AcDbBlockReference
  2
-014-_D29
 10
38417.20213671911
 20
826.9645601908287
 30
0.0
  0
INSERT
  5
2CA
330
1D
100
AcDbEntity
  8
_0-6__0-2_蟇_豕__ts
100
AcDbBlockReference
  2
-015-_D30
 10
38417.20213671911
 20
826.9645601908287
 30
0.0
  0
INSERT
  5
2CB
330
1D
100
AcDbEntity
  8
_0-6__0-2_蟇_豕__ts
100
AcDbBlockReference
  2
-016-_D31
 10
38417.20213671911
 20
826.9645601908287
 30
0.0
  0
CIRCLE
  5
2CC
330
1D
100
AcDbEntity
  8
_0-1_荳_闊_
  6
Continuous
 62
     7
100
AcDbCircle
 10
39846.93235502335
 20
835.9645601908287
 30
0.0
 40
4.999999999999918
  0
LINE
  5
2CD
330
1D
100
AcDbEntity
  8
_0-1_荳_闊_
  6
Continuous
 62
     7
100
AcDbLine
 10
39846.93235502335
 20
845.9645601908286
 30
0.0
 11
39846.93235502335
 21
825.9645601908287
 31
0.0
  0
LINE
  5
2CE
330
1D
100
AcDbEntity
  8
_0-1_荳_闊_
  6
Continuous
 62
     7
100
AcDbLine
 10
39836.93235502335
 20
835.9645601908287
 30
0.0
 11
39856.93235502335
 21
835.9645601908287
 31
0.0
  0
CIRCLE
  5
2CF
330
1D
100
AcDbEntity
  8
_0-1_荳_闊_
  6
Continuous
 62
     7
100
AcDbCircle
 10
39821.93235502334
 20
811.9645601908286
 30
0.0
 40
4.999999999999918
  0
LINE
  5
2D0
330
1D
100
AcDbEntity
  8
_0-1_荳_闊_
  6
Continuous
 62
     7
100
AcDbLine
 10
39821.93235502334
 20
821.9645601908286
 30
0.0
 11
39821.93235502334
 21
801.9645601908287
 31
0.0
  0
LINE
  5
2D1
330
1D
100
AcDbEntity
  8
_0-1_荳_闊_
  6
Continuous
 62
     7
100
AcDbLine
 10
39811.93235502335
 20
811.9645601908286
 30
0.0
 11
39831.93235502335
 21
811.9645601908286
 31
0.0
  0
CIRCLE
  5
2D2
330
1D
100
AcDbEntity
  8
_0-1_荳_闊_
  6
Continuous
 62
     7
100
AcDbCircle
 10
40042.93235502334
 20
835.9645601908287
 30
0.0
 40
4.999999999999918
  0
LINE
  5
2D3
330
1D
100
AcDbEntity
  8
_0-1_荳_闊_
  6
Continuous
 62
     7
100
AcDbLine
 10
40042.93235502334
 20
845.9645601908286
 30
0.0
 11
40042.93235502334
 21
825.9645601908287
 31
0.0
  0
LINE
  5
2D4
330
1D
100
AcDbEntity
  8
_0-1_荳_闊_
  6
Continuous
 62
     7
100
AcDbLine
 10
40052.93235502334
 20
835.9645601908287
 30
0.0
 11
40032.93235502335
 21
835.9645601908287
 31
0.0
  0
CIRCLE
  5
2D5
330
1D
100
AcDbEntity
  8
_0-1_荳_闊_
  6
Continuous
 62
     7
100
AcDbCircle
 10
40067.93235502335
 20
811.9645601908286
 30
0.0
 40
4.999999999999918
  0
LINE
  5
2D6
330
1D
100
AcDbEntity
  8
_0-1_荳_闊_
  6
Continuous
 62
     7
100
AcDbLine
 10
40067.93235502335
 20
821.9645601908286
 30
0.0
 11
40067.93235502335
 21
801.9645601908287
 31
0.0
  0
LINE
  5
2D7
330
1D
100
AcDbEntity
  8
_0-1_荳_闊_
  6
Continuous
 62
     7
100
AcDbLine
 10
40077.93235502334
 20
811.9645601908286
 30
0.0
 11
40057.93235502334
 21
811.9645601908286
 31
0.0
  0
LINE
  5
2D8
330
1D
100
AcDbEntity
  8
_0-1_荳_闊_
  6
VW-01_遏_遐_邱__
 62
     7
100
AcDbLine
 10
38775.4077150917
 20
1644.97397358532
 30
0.0
 11
38775.4077150917
 21
1694.97397358532
 31
0.0
  0
LINE
  5
2D9
330
1D
100
AcDbEntity
  8
_0-1_荳_闊_
  6
VW-01_遏_遐_邱__
 62
     7
100
AcDbLine
 10
38775.4077150917
 20
1694.97397358532
 30
0.0
 11
38800.4077150917
 21
1694.97397358532
 31
0.0
  0
LINE
  5
2DA
330
1D
100
AcDbEntity
  8
_0-1_荳_闊_
  6
VW-01_遏_遐_邱__
 62
     7
100
AcDbLine
 10
38800.4077150917
 20
1694.97397358532
 30
0.0
 11
38800.4077150917
 21
1644.97397358532
 31
0.0
  0
LINE
  5
2DB
330
1D
100
AcDbEntity
  8
_0-1_荳_闊_
  6
VW-01_遏_遐_邱__
 62
     7
100
AcDbLine
 10
38800.4077150917
 20
1644.97397358532
 30
0.0
 11
38775.4077150917
 21
1644.97397358532
 31
0.0
  0
LINE
  5
2DC
330
1D
100
AcDbEntity
  8
_0-1_荳_闊_
  6
VW-01_遏_遐_邱__
 62
     7
100
AcDbLine
 10
38775.4077150917
 20
1700.97397358532
 30
0.0
 11
38775.4077150917
 21
1750.97397358532
 31
0.0
  0
LINE
  5
2DD
330
1D
100
AcDbEntity
  8
_0-1_荳_闊_
  6
VW-01_遏_遐_邱__
 62
     7
100
AcDbLine
 10
38775.4077150917
 20
1750.97397358532
 30
0.0
 11
38800.4077150917
 21
1750.97397358532
 31
0.0
  0
LINE
  5
2DE
330
1D
100
AcDbEntity
  8
_0-1_荳_闊_
  6
VW-01_遏_遐_邱__
 62
     7
100
AcDbLine
 10
38800.4077150917
 20
1750.97397358532
 30
0.0
 11
38800.4077150917
 21
1700.97397358532
 31
0.0
  0
LINE
  5
2DF
330
1D
100
AcDbEntity
  8
_0-1_荳_闊_
  6
VW-01_遏_遐_邱__
 62
     7
100
AcDbLine
 10
38800.4077150917
 20
1700.97397358532
 30
0.0
 11
38775.4077150917
 21
1700.97397358532
 31
0.0
  0
LINE
  5
2E0
330
1D
100
AcDbEntity
  8
_0-1_荳_闊_
  6
VW-01_遏_遐_邱__
 62
     7
100
AcDbLine
 10
38775.4077150917
 20
1756.97397358532
 30
0.0
 11
38775.4077150917
 21
1806.97397358532
 31
0.0
  0
LINE
  5
2E1
330
1D
100
AcDbEntity
  8
_0-1_荳_闊_
  6
VW-01_遏_遐_邱__
 62
     7
100
AcDbLine
 10
38775.4077150917
 20
1806.97397358532
 30
0.0
 11
38800.4077150917
 21
1806.97397358532
 31
0.0
  0
LINE
  5
2E2
330
1D
100
AcDbEntity
  8
_0-1_荳_闊_
  6
VW-01_遏_遐_邱__
 62
     7
100
AcDbLine
 10
38800.4077150917
 20
1806.97397358532
 30
0.0
 11
38800.4077150917
 21
1756.97397358532
 31
0.0
  0
LINE
  5
2E3
330
1D
100
AcDbEntity
  8
_0-1_荳_闊_
  6
VW-01_遏_遐_邱__
 62
     7
100
AcDbLine
 10
38800.4077150917
 20
1756.97397358532
 30
0.0
 11
38775.4077150917
 21
1756.97397358532
 31
0.0
  0
LINE
  5
2E4
330
1D
100
AcDbEntity
  8
_0-1_荳_闊_
  6
VW-01_遏_遐_邱__
 62
     7
100
AcDbLine
 10
38775.4077150917
 20
1812.97397358532
 30
0.0
 11
38775.4077150917
 21
1862.97397358532
 31
0.0
  0
LINE
  5
2E5
330
1D
100
AcDbEntity
  8
_0-1_荳_闊_
  6
VW-01_遏_遐_邱__
 62
     7
100
AcDbLine
 10
38775.4077150917
 20
1862.97397358532
 30
0.0
 11
38800.4077150917
 21
1862.97397358532
 31
0.0
  0
LINE
  5
2E6
330
1D
100
AcDbEntity
  8
_0-1_荳_闊_
  6
VW-01_遏_遐_邱__
 62
     7
100
AcDbLine
 10
38800.4077150917
 20
1862.97397358532
 30
0.0
 11
38800.4077150917
 21
1812.97397358532
 31
0.0
  0
LINE
  5
2E7
330
1D
100
AcDbEntity
  8
_0-1_荳_闊_
  6
VW-01_遏_遐_邱__
 62
     7
100
AcDbLine
 10
38800.4077150917
 20
1812.97397358532
 30
0.0
 11
38775.4077150917
 21
1812.97397358532
 31
0.0
  0
LINE
  5
2E8
330
1D
100
AcDbEntity
  8
_0-1_荳_闊_
  6
VW-01_遏_遐_邱__
 62
     7
100
AcDbLine
 10
38775.4077150917
 20
1868.97397358532
 30
0.0
 11
38775.4077150917
 21
1918.97397358532
 31
0.0
  0
LINE
  5
2E9
330
1D
100
AcDbEntity
  8
_0-1_荳_闊_
  6
VW-01_遏_遐_邱__
 62
     7
100
AcDbLine
 10
38775.4077150917
 20
1918.97397358532
 30
0.0
 11
38800.4077150917
 21
1918.97397358532
 31
0.0
  0
LINE
  5
2EA
330
1D
100
AcDbEntity
  8
_0-1_荳_闊_
  6
VW-01_遏_遐_邱__
 62
     7
100
AcDbLine
 10
38800.4077150917
 20
1918.97397358532
 30
0.0
 11
38800.4077150917
 21
1868.97397358532
 31
0.0
  0
LINE
  5
2EB
330
1D
100
AcDbEntity
  8
_0-1_荳_闊_
  6
VW-01_遏_遐_邱__
 62
     7
100
AcDbLine
 10
38800.4077150917
 20
1868.97397358532
 30
0.0
 11
38775.4077150917
 21
1868.97397358532
 31
0.0
  0
LINE
  5
2EC
330
1D
100
AcDbEntity
  8
_0-1_荳_闊_
  6
VW-01_遏_遐_邱__
 62
     7
100
AcDbLine
 10
38775.4077150917
 20
1924.97397358532
 30
0.0
 11
38775.4077150917
 21
1974.97397358532
 31
0.0
  0
LINE
  5
2ED
330
1D
100
AcDbEntity
  8
_0-1_荳_闊_
  6
VW-01_遏_遐_邱__
 62
     7
100
AcDbLine
 10
38775.4077150917
 20
1974.97397358532
 30
0.0
 11
38800.4077150917
 21
1974.97397358532
 31
0.0
  0
LINE
  5
2EE
330
1D
100
AcDbEntity
  8
_0-1_荳_闊_
  6
VW-01_遏_遐_邱__
 62
     7
100
AcDbLine
 10
38800.4077150917
 20
1974.97397358532
 30
0.0
 11
38800.4077150917
 21
1924.97397358532
 31
0.0
  0
LINE
  5
2EF
330
1D
100
AcDbEntity
  8
_0-1_荳_闊_
  6
VW-01_遏_遐_邱__
 62
     7
100
AcDbLine
 10
38800.4077150917
 20
1924.97397358532
 30
0.0
 11
38775.4077150917
 21
1924.97397358532
 31
0.0
  0
LINE
  5
2F0
330
1D
100
AcDbEntity
  8
_0-1_荳_闊_
  6
VW-01_遏_遐_邱__
 62
     7
100
AcDbLine
 10
38775.4077150917
 20
1980.97397358532
 30
0.0
 11
38775.4077150917
 21
2030.97397358532
 31
0.0
  0
LINE
  5
2F1
330
1D
100
AcDbEntity
  8
_0-1_荳_闊_
  6
VW-01_遏_遐_邱__
 62
     7
100
AcDbLine
 10
38775.4077150917
 20
2030.97397358532
 30
0.0
 11
38800.4077150917
 21
2030.97397358532
 31
0.0
  0
LINE
  5
2F2
330
1D
100
AcDbEntity
  8
_0-1_荳_闊_
  6
VW-01_遏_遐_邱__
 62
     7
100
AcDbLine
 10
38800.4077150917
 20
2030.97397358532
 30
0.0
 11
38800.4077150917
 21
1980.97397358532
 31
0.0
  0
LINE
  5
2F3
330
1D
100
AcDbEntity
  8
_0-1_荳_闊_
  6
VW-01_遏_遐_邱__
 62
     7
100
AcDbLine
 10
38800.4077150917
 20
1980.97397358532
 30
0.0
 11
38775.4077150917
 21
1980.97397358532
 31
0.0
  0
LINE
  5
2F4
330
1D
100
AcDbEntity
  8
_0-1_荳_闊_
  6
Continuous
 62
     7
100
AcDbLine
 10
37095.40771509169
 20
1644.97397358532
 30
0.0
 11
37095.40771509169
 21
1694.97397358532
 31
0.0
  0
LINE
  5
2F5
330
1D
100
AcDbEntity
  8
_0-1_荳_闊_
  6
Continuous
 62
     7
100
AcDbLine
 10
37095.40771509169
 20
1694.97397358532
 30
0.0
 11
38775.4077150917
 21
1694.97397358532
 31
0.0
  0
LINE
  5
2F6
330
1D
100
AcDbEntity
  8
_0-1_荳_闊_
  6
Continuous
 62
     7
100
AcDbLine
 10
38775.4077150917
 20
1694.97397358532
 30
0.0
 11
38775.4077150917
 21
1644.97397358532
 31
0.0
  0
LINE
  5
2F7
330
1D
100
AcDbEntity
  8
_0-1_荳_闊_
  6
Continuous
 62
     7
100
AcDbLine
 10
38775.4077150917
 20
1644.97397358532
 30
0.0
 11
37095.40771509169
 21
1644.97397358532
 31
0.0
  0
LINE
  5
2F8
330
1D
100
AcDbEntity
  8
_0-1_荳_闊_
  6
Continuous
 62
     7
100
AcDbLine
 10
37095.40771509169
 20
1700.97397358532
 30
0.0
 11
37095.40771509169
 21
1750.97397358532
 31
0.0
  0
LINE
  5
2F9
330
1D
100
AcDbEntity
  8
_0-1_荳_闊_
  6
Continuous
 62
     7
100
AcDbLine
 10
37095.40771509169
 20
1750.97397358532
 30
0.0
 11
38775.4077150917
 21
1750.97397358532
 31
0.0
  0
LINE
  5
2FA
330
1D
100
AcDbEntity
  8
_0-1_荳_闊_
  6
Continuous
 62
     7
100
AcDbLine
 10
38775.4077150917
 20
1750.97397358532
 30
0.0
 11
38775.4077150917
 21
1700.97397358532
 31
0.0
  0
LINE
  5
2FB
330
1D
100
AcDbEntity
  8
_0-1_荳_闊_
  6
Continuous
 62
     7
100
AcDbLine
 10
38775.4077150917
 20
1700.97397358532
 30
0.0
 11
37095.40771509169
 21
1700.97397358532
 31
0.0
  0
LINE
  5
2FC
330
1D
100
AcDbEntity
  8
_0-1_荳_闊_
  6
Continuous
 62
     7
100
AcDbLine
 10
37095.40771509169
 20
1756.97397358532
 30
0.0
 11
37095.40771509169
 21
1806.97397358532
 31
0.0
  0
LINE
  5
2FD
330
1D
100
AcDbEntity
  8
_0-1_荳_闊_
  6
Continuous
 62
     7
100
AcDbLine
 10
37095.40771509169
 20
1806.97397358532
 30
0.0
 11
38775.4077150917
 21
1806.97397358532
 31
0.0
  0
LINE
  5
2FE
330
1D
100
AcDbEntity
  8
_0-1_荳_闊_
  6
Continuous
 62
     7
100
AcDbLine
 10
38775.4077150917
 20
1806.97397358532
 30
0.0
 11
38775.4077150917
 21
1756.97397358532
 31
0.0
  0
LINE
  5
2FF
330
1D
100
AcDbEntity
  8
_0-1_荳_闊_
  6
Continuous
 62
     7
100
AcDbLine
 10
38775.4077150917
 20
1756.97397358532
 30
0.0
 11
37095.40771509169
 21
1756.97397358532
 31
0.0
  0
LINE
  5
300
330
1D
100
AcDbEntity
  8
_0-1_荳_闊_
  6
Continuous
 62
     7
100
AcDbLine
 10
37095.40771509169
 20
1812.97397358532
 30
0.0
 11
37095.40771509169
 21
1862.97397358532
 31
0.0
  0
LINE
  5
301
330
1D
100
AcDbEntity
  8
_0-1_荳_闊_
  6
Continuous
 62
     7
100
AcDbLine
 10
37095.40771509169
 20
1862.97397358532
 30
0.0
 11
38775.4077150917
 21
1862.97397358532
 31
0.0
  0
LINE
  5
302
330
1D
100
AcDbEntity
  8
_0-1_荳_闊_
  6
Continuous
 62
     7
100
AcDbLine
 10
38775.4077150917
 20
1862.97397358532
 30
0.0
 11
38775.4077150917
 21
1812.97397358532
 31
0.0
  0
LINE
  5
303
330
1D
100
AcDbEntity
  8
_0-1_荳_闊_
  6
Continuous
 62
     7
100
AcDbLine
 10
38775.4077150917
 20
1812.97397358532
 30
0.0
 11
37095.40771509169
 21
1812.97397358532
 31
0.0
  0
LINE
  5
304
330
1D
100
AcDbEntity
  8
_0-1_荳_闊_
  6
Continuous
 62
     7
100
AcDbLine
 10
37095.40771509169
 20
1868.97397358532
 30
0.0
 11
37095.40771509169
 21
1918.97397358532
 31
0.0
  0
LINE
  5
305
330
1D
100
AcDbEntity
  8
_0-1_荳_闊_
  6
Continuous
 62
     7
100
AcDbLine
 10
37095.40771509169
 20
1918.97397358532
 30
0.0
 11
38775.4077150917
 21
1918.97397358532
 31
0.0
  0
LINE
  5
306
330
1D
100
AcDbEntity
  8
_0-1_荳_闊_
  6
Continuous
 62
     7
100
AcDbLine
 10
38775.4077150917
 20
1918.97397358532
 30
0.0
 11
38775.4077150917
 21
1868.97397358532
 31
0.0
  0
LINE
  5
307
330
1D
100
AcDbEntity
  8
_0-1_荳_闊_
  6
Continuous
 62
     7
100
AcDbLine
 10
38775.4077150917
 20
1868.97397358532
 30
0.0
 11
37095.40771509169
 21
1868.97397358532
 31
0.0
  0
LINE
  5
308
330
1D
100
AcDbEntity
  8
_0-1_荳_闊_
  6
Continuous
 62
     7
100
AcDbLine
 10
37095.40771509169
 20
1924.97397358532
 30
0.0
 11
37095.40771509169
 21
1974.97397358532
 31
0.0
  0
LINE
  5
309
330
1D
100
AcDbEntity
  8
_0-1_荳_闊_
  6
Continuous
 62
     7
100
AcDbLine
 10
37095.40771509169
 20
1974.97397358532
 30
0.0
 11
38775.4077150917
 21
1974.97397358532
 31
0.0
  0
LINE
  5
30A
330
1D
100
AcDbEntity
  8
_0-1_荳_闊_
  6
Continuous
 62
     7
100
AcDbLine
 10
38775.4077150917
 20
1974.97397358532
 30
0.0
 11
38775.4077150917
 21
1924.97397358532
 31
0.0
  0
LINE
  5
30B
330
1D
100
AcDbEntity
  8
_0-1_荳_闊_
  6
Continuous
 62
     7
100
AcDbLine
 10
38775.4077150917
 20
1924.97397358532
 30
0.0
 11
37095.40771509169
 21
1924.97397358532
 31
0.0
  0
LINE
  5
30C
330
1D
100
AcDbEntity
  8
_0-1_荳_闊_
  6
Continuous
 62
     7
100
AcDbLine
 10
37095.40771509169
 20
1980.97397358532
 30
0.0
 11
37095.40771509169
 21
2030.97397358532
 31
0.0
  0
LINE
  5
30D
330
1D
100
AcDbEntity
  8
_0-1_荳_闊_
  6
Continuous
 62
     7
100
AcDbLine
 10
37095.40771509169
 20
2030.97397358532
 30
0.0
 11
38775.4077150917
 21
2030.97397358532
 31
0.0
  0
LINE
  5
30E
330
1D
100
AcDbEntity
  8
_0-1_荳_闊_
  6
Continuous
 62
     7
100
AcDbLine
 10
38775.4077150917
 20
2030.97397358532
 30
0.0
 11
38775.4077150917
 21
1980.97397358532
 31
0.0
  0
LINE
  5
30F
330
1D
100
AcDbEntity
  8
_0-1_荳_闊_
  6
Continuous
 62
     7
100
AcDbLine
 10
38775.4077150917
 20
1980.97397358532
 30
0.0
 11
37095.40771509169
 21
1980.97397358532
 31
0.0
  0
LINE
  5
310
330
1D
100
AcDbEntity
  8
_0-1_荳_闊_
  6
Continuous
 62
     7
100
AcDbLine
 10
37095.40771509169
 20
1980.97397358532
 30
0.0
 11
37095.40771509169
 21
2030.97397358532
 31
0.0
  0
LINE
  5
311
330
1D
100
AcDbEntity
  8
_0-1_荳_闊_
  6
Continuous
 62
     7
100
AcDbLine
 10
37095.40771509169
 20
2030.97397358532
 30
0.0
 11
38775.4077150917
 21
2030.97397358532
 31
0.0
  0
LINE
  5
312
330
1D
100
AcDbEntity
  8
_0-1_荳_闊_
  6
Continuous
 62
     7
100
AcDbLine
 10
38775.4077150917
 20
2030.97397358532
 30
0.0
 11
38775.4077150917
 21
1980.97397358532
 31
0.0
  0
LINE
  5
313
330
1D
100
AcDbEntity
  8
_0-1_荳_闊_
  6
Continuous
 62
     7
100
AcDbLine
 10
38775.4077150917
 20
1980.97397358532
 30
0.0
 11
37095.40771509169
 21
1980.97397358532
 31
0.0
  0
LINE
  5
314
330
1D
100
AcDbEntity
  8
_0-1_荳_闊_
  6
VW-01_遏_遐_邱__
 62
     7
100
AcDbLine
 10
37070.40771509169
 20
1644.97397358532
 30
0.0
 11
37070.40771509169
 21
1694.97397358532
 31
0.0
  0
LINE
  5
315
330
1D
100
AcDbEntity
  8
_0-1_荳_闊_
  6
VW-01_遏_遐_邱__
 62
     7
100
AcDbLine
 10
37070.40771509169
 20
1694.97397358532
 30
0.0
 11
37095.40771509169
 21
1694.97397358532
 31
0.0
  0
LINE
  5
316
330
1D
100
AcDbEntity
  8
_0-1_荳_闊_
  6
VW-01_遏_遐_邱__
 62
     7
100
AcDbLine
 10
37095.40771509169
 20
1694.97397358532
 30
0.0
 11
37095.40771509169
 21
1644.97397358532
 31
0.0
  0
LINE
  5
317
330
1D
100
AcDbEntity
  8
_0-1_荳_闊_
  6
VW-01_遏_遐_邱__
 62
     7
100
AcDbLine
 10
37095.40771509169
 20
1644.97397358532
 30
0.0
 11
37070.40771509169
 21
1644.97397358532
 31
0.0
  0
LINE
  5
318
330
1D
100
AcDbEntity
  8
_0-1_荳_闊_
  6
VW-01_遏_遐_邱__
 62
     7
100
AcDbLine
 10
37070.40771509169
 20
1700.97397358532
 30
0.0
 11
37070.40771509169
 21
1750.97397358532
 31
0.0
  0
LINE
  5
319
330
1D
100
AcDbEntity
  8
_0-1_荳_闊_
  6
VW-01_遏_遐_邱__
 62
     7
100
AcDbLine
 10
37070.40771509169
 20
1750.97397358532
 30
0.0
 11
37095.40771509169
 21
1750.97397358532
 31
0.0
  0
LINE
  5
31A
330
1D
100
AcDbEntity
  8
_0-1_荳_闊_
  6
VW-01_遏_遐_邱__
 62
     7
100
AcDbLine
 10
37095.40771509169
 20
1750.97397358532
 30
0.0
 11
37095.40771509169
 21
1700.97397358532
 31
0.0
  0
LINE
  5
31B
330
1D
100
AcDbEntity
  8
_0-1_荳_闊_
  6
VW-01_遏_遐_邱__
 62
     7
100
AcDbLine
 10
37095.40771509169
 20
1700.97397358532
 30
0.0
 11
37070.40771509169
 21
1700.97397358532
 31
0.0
  0
LINE
  5
31C
330
1D
100
AcDbEntity
  8
_0-1_荳_闊_
  6
VW-01_遏_遐_邱__
 62
     7
100
AcDbLine
 10
37070.40771509169
 20
1756.97397358532
 30
0.0
 11
37070.40771509169
 21
1806.97397358532
 31
0.0
  0
LINE
  5
31D
330
1D
100
AcDbEntity
  8
_0-1_荳_闊_
  6
VW-01_遏_遐_邱__
 62
     7
100
AcDbLine
 10
37070.40771509169
 20
1806.97397358532
 30
0.0
 11
37095.40771509169
 21
1806.97397358532
 31
0.0
  0
LINE
  5
31E
330
1D
100
AcDbEntity
  8
_0-1_荳_闊_
  6
VW-01_遏_遐_邱__
 62
     7
100
AcDbLine
 10
37095.40771509169
 20
1806.97397358532
 30
0.0
 11
37095.40771509169
 21
1756.97397358532
 31
0.0
  0
LINE
  5
31F
330
1D
100
AcDbEntity
  8
_0-1_荳_闊_
  6
VW-01_遏_遐_邱__
 62
     7
100
AcDbLine
 10
37095.40771509169
 20
1756.97397358532
 30
0.0
 11
37070.40771509169
 21
1756.97397358532
 31
0.0
  0
LINE
  5
320
330
1D
100
AcDbEntity
  8
_0-1_荳_闊_
  6
VW-01_遏_遐_邱__
 62
     7
100
AcDbLine
 10
37070.40771509169
 20
1812.97397358532
 30
0.0
 11
37070.40771509169
 21
1862.97397358532
 31
0.0
  0
LINE
  5
321
330
1D
100
AcDbEntity
  8
_0-1_荳_闊_
  6
VW-01_遏_遐_邱__
 62
     7
100
AcDbLine
 10
37070.40771509169
 20
1862.97397358532
 30
0.0
 11
37095.40771509169
 21
1862.97397358532
 31
0.0
  0
LINE
  5
322
330
1D
100
AcDbEntity
  8
_0-1_荳_闊_
  6
VW-01_遏_遐_邱__
 62
     7
100
AcDbLine
 10
37095.40771509169
 20
1862.97397358532
 30
0.0
 11
37095.40771509169
 21
1812.97397358532
 31
0.0
  0
LINE
  5
323
330
1D
100
AcDbEntity
  8
_0-1_荳_闊_
  6
VW-01_遏_遐_邱__
 62
     7
100
AcDbLine
 10
37095.40771509169
 20
1812.97397358532
 30
0.0
 11
37070.40771509169
 21
1812.97397358532
 31
0.0
  0
LINE
  5
324
330
1D
100
AcDbEntity
  8
_0-1_荳_闊_
  6
VW-01_遏_遐_邱__
 62
     7
100
AcDbLine
 10
37070.40771509169
 20
1868.97397358532
 30
0.0
 11
37070.40771509169
 21
1918.97397358532
 31
0.0
  0
LINE
  5
325
330
1D
100
AcDbEntity
  8
_0-1_荳_闊_
  6
VW-01_遏_遐_邱__
 62
     7
100
AcDbLine
 10
37070.40771509169
 20
1918.97397358532
 30
0.0
 11
37095.40771509169
 21
1918.97397358532
 31
0.0
  0
LINE
  5
326
330
1D
100
AcDbEntity
  8
_0-1_荳_闊_
  6
VW-01_遏_遐_邱__
 62
     7
100
AcDbLine
 10
37095.40771509169
 20
1918.97397358532
 30
0.0
 11
37095.40771509169
 21
1868.97397358532
 31
0.0
  0
LINE
  5
327
330
1D
100
AcDbEntity
  8
_0-1_荳_闊_
  6
VW-01_遏_遐_邱__
 62
     7
100
AcDbLine
 10
37095.40771509169
 20
1868.97397358532
 30
0.0
 11
37070.40771509169
 21
1868.97397358532
 31
0.0
  0
LINE
  5
328
330
1D
100
AcDbEntity
  8
_0-1_荳_闊_
  6
VW-01_遏_遐_邱__
 62
     7
100
AcDbLine
 10
37070.40771509169
 20
1924.97397358532
 30
0.0
 11
37070.40771509169
 21
1974.97397358532
 31
0.0
  0
LINE
  5
329
330
1D
100
AcDbEntity
  8
_0-1_荳_闊_
  6
VW-01_遏_遐_邱__
 62
     7
100
AcDbLine
 10
37070.40771509169
 20
1974.97397358532
 30
0.0
 11
37095.40771509169
 21
1974.97397358532
 31
0.0
  0
LINE
  5
32A
330
1D
100
AcDbEntity
  8
_0-1_荳_闊_
  6
VW-01_遏_遐_邱__
 62
     7
100
AcDbLine
 10
37095.40771509169
 20
1974.97397358532
 30
0.0
 11
37095.40771509169
 21
1924.97397358532
 31
0.0
  0
LINE
  5
32B
330
1D
100
AcDbEntity
  8
_0-1_荳_闊_
  6
VW-01_遏_遐_邱__
 62
     7
100
AcDbLine
 10
37095.40771509169
 20
1924.97397358532
 30
0.0
 11
37070.40771509169
 21
1924.97397358532
 31
0.0
  0
LINE
  5
32C
330
1D
100
AcDbEntity
  8
_0-1_荳_闊_
  6
VW-01_遏_遐_邱__
 62
     7
100
AcDbLine
 10
37070.40771509169
 20
1980.97397358532
 30
0.0
 11
37070.40771509169
 21
2030.97397358532
 31
0.0
  0
LINE
  5
32D
330
1D
100
AcDbEntity
  8
_0-1_荳_闊_
  6
VW-01_遏_遐_邱__
 62
     7
100
AcDbLine
 10
37070.40771509169
 20
2030.97397358532
 30
0.0
 11
37095.40771509169
 21
2030.97397358532
 31
0.0
  0
LINE
  5
32E
330
1D
100
AcDbEntity
  8
_0-1_荳_闊_
  6
VW-01_遏_遐_邱__
 62
     7
100
AcDbLine
 10
37095.40771509169
 20
2030.97397358532
 30
0.0
 11
37095.40771509169
 21
1980.97397358532
 31
0.0
  0
LINE
  5
32F
330
1D
100
AcDbEntity
  8
_0-1_荳_闊_
  6
VW-01_遏_遐_邱__
 62
     7
100
AcDbLine
 10
37095.40771509169
 20
1980.97397358532
 30
0.0
 11
37070.40771509169
 21
1980.97397358532
 31
0.0
  0
TEXT
  5
330
330
1D
100
AcDbEntity
  8
_0-1_荳_闊_
 62
     7
100
AcDbText
 10
38675.93741759265
 20
-443.6187911734232
 30
0.0
 40
32.494140625
  1
キアルベンチ KIB-07 土新建材
 41
0.9
100
AcDbText
  0
TEXT
  5
331
330
1D
100
AcDbEntity
  8
_0-1_荳_闊_
 62
     7
100
AcDbText
 10
39910.0350072458
 20
-249.641392257754
 30
0.0
 40
27.07845052083333
  1
側面図
100
AcDbText
  0
TEXT
  5
332
330
1D
100
AcDbEntity
  8
_0-1_荳_闊_
 62
     7
100
AcDbText
 10
40322.21816476448
 20
954.9742332846108
 30
0.0
 40
21.66276041666666
  1
SUS M8ボルト
100
AcDbText
  0
TEXT
  5
333
330
1D
100
AcDbEntity
  8
_0-1_荳_闊_
 62
     7
100
AcDbText
 10
37920.094449404
 20
-249.641392257754
 30
0.0
 40
27.07845052083333
  1
正面図
100
AcDbText
  0
TEXT
  5
334
330
1D
100
AcDbEntity
  8
_0-1_荳_闊_
 62
     7
100
AcDbText
 10
37305.70545814725
 20
292.9156713019402
 30
0.0
 40
21.66276041666666
  1
基礎コンクリート
100
AcDbText
  0
TEXT
  5
335
330
1D
100
AcDbEntity
  8
_0-1_荳_闊_
 62
     7
100
AcDbText
 10
38324.39983258457
 20
321.8858865397597
 30
0.0
 40
21.66276041666666
  1
M8 SUSグリップアンカー
100
AcDbText
  0
TEXT
  5
336
330
1D
100
AcDbEntity
  8
_0-1_荳_闊_
 62
     7
100
AcDbText
 10
37914.62530875964
 20
1420.992129067006
 30
0.0
 40
27.07845052083333
  1
平面図
100
AcDbText
  0
TEXT
  5
337
330
1D
100
AcDbEntity
  8
_0-1_荳_闊_
 62
     7
100
AcDbText
 10
38272.53547005244
 20
1503.91567130194
 30
0.0
 40
21.66276041666666
  1
座面:木粉一体成型アルミ材 キアル50×30
100
AcDbText
  0
TEXT
  5
338
330
1D
100
AcDbEntity
  8
_0-1_荳_闊_
 62
     7
100
AcDbText
 10
36792.20109305355
 20
828.4695520943515
 30
0.0
 40
21.66276041666666
  1
アルミ鋳物
100
AcDbText
  0
TEXT
  5
339
330
1D
100
AcDbEntity
  8
_0-1_荳_闊_
 62
     7
100
AcDbText
 10
37698.94903889227
 20
726.8221342987962
 30
0.0
 40
21.66276041666666
  1
ST L-50×50×4
100
AcDbText
  0
TEXT
  5
33A
330
1D
100
AcDbEntity
  8
_0-1_荳_闊_
 62
     7
100
AcDbText
 10
38048.53790488376
 20
710.4739170906031
 30
0.0
 40
21.66276041666666
  1
ST FB-t3×44
100
AcDbText
  0
TEXT
  5
33B
330
1D
100
AcDbEntity
  8
_0-1_荳_闊_
 62
     7
100
AcDbText
 10
38047.22550511703
 20
684.9064580054236
 30
0.0
 40
21.66276041666666
  1
ステンシェルFT塗装
100
AcDbText
  0
TEXT
  5
33C
330
1D
100
AcDbEntity
  8
_0-1_荳_闊_
 62
     7
100
AcDbText
 10
36669.628690849
 20
798.0954237473579
 30
0.0
 40
21.66276041666666
  1
ステンシェルFT塗装 D60
100
AcDbText
  0
TEXT
  5
33D
330
1D
100
AcDbEntity
  8
_0-1_荳_闊_
 62
     7
100
AcDbText
 10
38510.22048346031
 20
586.2681197084985
 30
0.0
 40
21.66276041666666
  1
M8 SUSボルト
100
AcDbText
  0
TEXT
  5
33E
330
1D
100
AcDbEntity
  8
_0-1_荳_闊_
 62
     7
100
AcDbText
 10
37696.15952198279
 20
696.3868346740327
 30
0.0
 40
21.66276041666666
  1
ステンシェルFT塗装
100
AcDbText
  0
ENDSEC
  0
SECTION
  2
OBJECTS
  0
DICTIONARY
  5
C
330
0
100
AcDbDictionary
281
     1
  3
ACAD_2007HEADERVARS_RT
350
3EE
  3
ACAD_CIP_PREVIOUS_PRODUCT_INFO
350
3DE
  3
ACAD_COLOR
350
3D7
  3
ACAD_DETAILVIEWSTYLE
350
383
  3
ACAD_GROUP
350
D
  3
ACAD_LAYOUT
350
1A
  3
ACAD_MATERIAL
350
374
  3
ACAD_MLEADERSTYLE
350
37A
  3
ACAD_MLINESTYLE
350
17
  3
ACAD_PLOTSETTINGS
350
19
  3
ACAD_PLOTSTYLENAME
350
E
  3
ACAD_SCALELIST
350
345
  3
ACAD_SECTIONVIEWSTYLE
350
384
  3
ACAD_TABLESTYLE
350
378
  3
ACAD_VISUALSTYLE
350
35B
  3
ACDB_RECOMPOSE_DATA
350
3EC
  3
AcDbVariableDictionary
350
37E
  3
DWGPROPS
350
3ED
  0
DICTIONARY
  5
3EE
102
{ACAD_REACTORS
330
C
102
}
330
C
100
AcDbDictionary
281
     1
  3
INTERFERECOLOR
350
3EF
  0
XRECORD
  5
3DE
102
{ACAD_REACTORS
330
C
102
}
330
C
100
AcDbXrecord
280
     1
300
ACD
300
2022
300

  0
DICTIONARY
  5
3D7
102
{ACAD_REACTORS
330
C
102
}
330
C
100
AcDbDictionary
281
     1
  0
DICTIONARY
  5
383
102
{ACAD_REACTORS
330
C
102
}
330
C
100
AcDbDictionary
281
     1
  3
Imperial24
350
3D9
  0
DICTIONARY
  5
D
102
{ACAD_REACTORS
330
C
102
}
330
C
100
AcDbDictionary
281
     1
  0
DICTIONARY
  5
1A
102
{ACAD_REACTORS
330
C
102
}
330
C
100
AcDbDictionary
281
     1
  3
Model
350
1E
  3
レイアウト 1
350
1C
  0
DICTIONARY
  5
374
102
{ACAD_REACTORS
330
C
102
}
330
C
100
AcDbDictionary
281
     1
  3
ByBlock
350
376
  3
ByLayer
350
375
  3
Global
350
377
  0
DICTIONARY
  5
37A
102
{ACAD_REACTORS
330
C
102
}
330
C
100
AcDbDictionary
281
     1
  3
Standard
350
37B
  0
DICTIONARY
  5
17
102
{ACAD_REACTORS
330
C
102
}
330
C
100
AcDbDictionary
281
     1
  3
Standard
350
18
  0
DICTIONARY
  5
19
102
{ACAD_REACTORS
330
C
102
}
330
C
100
AcDbDictionary
281
     1
  0
ACDBDICTIONARYWDFLT
  5
E
102
{ACAD_REACTORS
330
C
102
}
330
C
100
AcDbDictionary
281
     1
  3
ByColor
350
11
  3
Normal
350
F
100
AcDbDictionaryWithDefault
340
F
  0
DICTIONARY
  5
345
102
{ACAD_REACTORS
330
C
102
}
330
C
100
AcDbDictionary
281
     1
  3
A0
350
346
  3
B7
350
347
  3
B8
350
348
  3
B9
350
349
  3
C0
350
34A
  3
C1
350
34B
  3
C2
350
34C
  3
C3
350
34D
  3
C4
350
34E
  3
C5
350
34F
  3
C6
350
350
  3
C7
350
351
  3
C8
350
352
  3
C9
350
353
  3
D0
350
354
  3
D1
350
355
  3
D2
350
356
  0
DICTIONARY
  5
384
102
{ACAD_REACTORS
330
C
102
}
330
C
100
AcDbDictionary
281
     1
  3
Imperial24
350
3D8
  0
DICTIONARY
  5
378
102
{ACAD_REACTORS
330
C
102
}
330
C
100
AcDbDictionary
281
     1
  3
Standard
350
379
  0
DICTIONARY
  5
35B
102
{ACAD_REACTORS
330
C
102
}
330
C
100
AcDbDictionary
281
     1
  3
2dWireframe
350
360
  3
Basic
350
363
  3
Brighten
350
367
  3
ColorChange
350
36B
  3
Conceptual
350
365
  3
Dim
350
366
  3
EdgeColorOff
350
36E
  3
Facepattern
350
36A
  3
Flat
350
35C
  3
FlatWithEdges
350
35D
  3
Gouraud
350
35E
  3
GouraudWithEdges
350
35F
  3
Hidden
350
362
  3
JitterOff
350
36C
  3
Linepattern
350
369
  3
OverhangOff
350
36D
  3
Realistic
350
364
  3
Shaded
350
373
  3
Shaded with edges
350
372
  3
Shades of Gray
350
36F
  3
Sketchy
350
370
  3
Thicken
350
368
  3
Wireframe
350
361
  3
X-Ray
350
371
  0
XRECORD
  5
3EC
102
{ACAD_REACTORS
330
C
102
}
330
C
100
AcDbXrecord
280
     1
 90
        1
330
379
  0
DICTIONARY
  5
37E
102
{ACAD_REACTORS
330
C
102
}
330
C
100
AcDbDictionary
281
     1
  3
CANNOSCALE
350
37F
  3
CMLEADERSTYLE
350
381
  3
CTABLESTYLE
350
380
  3
CVIEWDETAILSTYLE
350
3DF
  3
CVIEWSECTIONSTYLE
350
3E0
  3
DIMASSOC
350
3E7
  3
HIDETEXT
350
3E6
  3
INDEXCTL
350
3E5
  3
LAYEREVAL
350
3E2
  3
LAYERNOTIFY
350
3E3
  3
LIGHTINGUNITS
350
3E1
  3
MSLTSCALE
350
382
  3
SOLIDHIST
350
3E8
  3
SORTENTS
350
3E4
  3
XCLIPFRAME
350
399
  0
XRECORD
  5
3ED
102
{ACAD_REACTORS
330
C
102
}
330
C
100
AcDbXrecord
280
     1
  1
DWGPROPS COOKIE
  2

  3

  4

  6

  7

  8
81901
  9

300
=
301
=
302
=
303
=
304
=
305
=
306
=
307
=
308
=
309
=
 40
0.0010290046296296
 41
2459888.84537037
 42
2460176.4634375
  1

 90
        0
  0
XRECORD
  5
3EF
102
{ACAD_REACTORS
330
3EE
102
}
330
3EE
100
AcDbXrecord
280
     1
1004
1800000001000000000000C0000000000000000000000000
  0
ACDBDETAILVIEWSTYLE
  5
3D9
102
{ACAD_XDICTIONARY
360
42D
102
}
102
{ACAD_REACTORS
330
383
102
}
330
383
100
AcDbModelDocViewStyle
 70
     0
  3
Imperial24
290
     0
100
AcDbDetailViewStyle
 70
     0
 71
     0
 90
        3
 71
     1
340
12
 40
0.24
340
0
 40
0.24
300

 40
0.36
280
     3
 71
     2
340
16
 90
       25
 71
     3
340
12
 40
0.24
 90
        1
 40
0.75
 90
        1
300
%<\AcVar ViewType \f "%tc1">% %<\AcVar ViewDetailId>%\PSCALE %<\AcVar ViewScale \f "%sn">%
 71
     4
340
16
 90
       25
340
16
 90
       25
280
     0
  0
LAYOUT
  5
1E
102
{ACAD_XDICTIONARY
360
3F2
102
}
102
{ACAD_REACTORS
330
1A
102
}
330
1A
100
AcDbPlotSettings
  1

  2
none_device
  4
ISO_A4_(210.00_x_297.00_MM)
  6

 40
7.5
 41
20.0
 42
7.5
 43
20.0
 44
210.0
 45
297.0
 46
0.0
 47
0.0
 48
0.0
 49
0.0
140
0.0
141
0.0
142
1.0
143
1.0
 70
  1712
 72
     0
 73
     1
 74
     0
  7

 75
     0
147
1.0
148
0.0
149
0.0
100
AcDbLayout
  1
Model
 70
     1
 71
     0
 10
0.0
 20
0.0
 11
12.0
 21
9.0
 12
0.0
 22
0.0
 32
0.0
 14
36582.00325952525
 24
-484.9645601908305
 34
0.0
 15
40511.40627240337
 25
2194.38892676616
 35
0.0
146
0.0
 13
0.0
 23
0.0
 33
0.0
 16
1.0
 26
0.0
 36
0.0
 17
0.0
 27
1.0
 37
0.0
 76
     0
330
1D
331
33F
  0
LAYOUT
  5
1C
102
{ACAD_XDICTIONARY
360
3F0
102
}
102
{ACAD_REACTORS
330
1A
102
}
330
1A
100
AcDbPlotSettings
  1

  2
none_device
  4
ISO_A4_(210.00_x_297.00_MM)
  6

 40
7.5
 41
20.0
 42
7.5
 43
20.0
 44
210.0
 45
297.0
 46
0.0
 47
0.0
 48
0.0
 49
0.0
140
0.0
141
0.0
142
1.0
143
1.0
 70
   688
 72
     0
 73
     1
 74
     5
  7

 75
    16
147
1.0
148
0.0
149
0.0
100
AcDbLayout
  1
レイアウト 1
 70
     1
 71
     1
 10
0.0
 20
0.0
 11
12.0
 21
9.0
 12
0.0
 22
0.0
 32
0.0
 14
1.000000000000000E+20
 24
1.000000000000000E+20
 34
1.000000000000000E+20
 15
-1.000000000000000E+20
 25
-1.000000000000000E+20
 35
-1.000000000000000E+20
146
0.0
 13
0.0
 23
0.0
 33
0.0
 16
1.0
 26
0.0
 36
0.0
 17
0.0
 27
1.0
 37
0.0
 76
     0
330
1B
  0
MATERIAL
  5
376
102
{ACAD_XDICTIONARY
360
426
102
}
102
{ACAD_REACTORS
330
374
102
}
330
374
100
AcDbMaterial
  1
ByBlock
 73
     1
 78
     1
172
     1
176
     1
270
     1
274
     1
  0
MATERIAL
  5
375
102
{ACAD_XDICTIONARY
360
424
102
}
102
{ACAD_REACTORS
330
374
102
}
330
374
100
AcDbMaterial
  1
ByLayer
 73
     1
 78
     1
172
     1
176
     1
270
     1
274
     1
  0
MATERIAL
  5
377
102
{ACAD_XDICTIONARY
360
428
102
}
102
{ACAD_REACTORS
330
374
102
}
330
374
100
AcDbMaterial
  1
Global
 73
     1
 78
     1
172
     1
176
     1
270
     1
274
     1
  0
MLEADERSTYLE
  5
37B
102
{ACAD_REACTORS
330
37A
102
}
330
37A
100
AcDbMLeaderStyle
170
     2
171
     1
172
     0
 90
        2
 40
0.0
 41
0.0
173
     1
 91
-1056964608
340
16
 92
       -2
290
     1
 42
0.09
291
     1
 43
0.36
  3
Standard
 44
0.18
300

342
12
174
     1
178
     6
175
     1
176
     0
 93
-1056964608
 45
0.18
292
     0
297
     0
 46
0.18
 94
-1056964608
 47
1.0
 49
1.0
140
1.0
293
     1
141
0.0
294
     1
177
     0
142
1.0
295
     0
296
     0
143
0.125
1001
ACAD_MLEADERVER
1070
     2
  0
MLINESTYLE
  5
18
102
{ACAD_REACTORS
330
17
102
}
330
17
100
AcDbMlineStyle
  2
STANDARD
 70
     0
  3

 62
   256
 51
90.0
 52
90.0
 71
     2
 49
0.5
 62
   256
  6
BYLAYER
 49
-0.5
 62
   256
  6
BYLAYER
  0
ACDBPLACEHOLDER
  5
11
102
{ACAD_REACTORS
330
E
102
}
330
E
  0
ACDBPLACEHOLDER
  5
F
102
{ACAD_REACTORS
330
E
102
}
330
E
  0
SCALE
  5
346
102
{ACAD_REACTORS
330
345
102
}
330
345
100
AcDbScale
 70
     0
300
1:1
140
1.0
141
1.0
290
     1
  0
SCALE
  5
347
102
{ACAD_REACTORS
330
345
102
}
330
345
100
AcDbScale
 70
     0
300
1/128" = 1'-0"
140
0.0078125
141
12.0
290
     0
  0
SCALE
  5
348
102
{ACAD_REACTORS
330
345
102
}
330
345
100
AcDbScale
 70
     0
300
1/64" = 1'-0"
140
0.015625
141
12.0
290
     0
  0
SCALE
  5
349
102
{ACAD_REACTORS
330
345
102
}
330
345
100
AcDbScale
 70
     0
300
1/32" = 1'-0"
140
0.03125
141
12.0
290
     0
  0
SCALE
  5
34A
102
{ACAD_REACTORS
330
345
102
}
330
345
100
AcDbScale
 70
     0
300
1/16" = 1'-0"
140
0.0625
141
12.0
290
     0
  0
SCALE
  5
34B
102
{ACAD_REACTORS
330
345
102
}
330
345
100
AcDbScale
 70
     0
300
3/32" = 1'-0"
140
0.09375
141
12.0
290
     0
  0
SCALE
  5
34C
102
{ACAD_REACTORS
330
345
102
}
330
345
100
AcDbScale
 70
     0
300
1/8" = 1'-0"
140
0.125
141
12.0
290
     0
  0
SCALE
  5
34D
102
{ACAD_REACTORS
330
345
102
}
330
345
100
AcDbScale
 70
     0
300
3/16" = 1'-0"
140
0.1875
141
12.0
290
     0
  0
SCALE
  5
34E
102
{ACAD_REACTORS
330
345
102
}
330
345
100
AcDbScale
 70
     0
300
1/4" = 1'-0"
140
0.25
141
12.0
290
     0
  0
SCALE
  5
34F
102
{ACAD_REACTORS
330
345
102
}
330
345
100
AcDbScale
 70
     0
300
3/8" = 1'-0"
140
0.375
141
12.0
290
     0
  0
SCALE
  5
350
102
{ACAD_REACTORS
330
345
102
}
330
345
100
AcDbScale
 70
     0
300
1/2" = 1'-0"
140
0.5
141
12.0
290
     0
  0
SCALE
  5
351
102
{ACAD_REACTORS
330
345
102
}
330
345
100
AcDbScale
 70
     0
300
3/4" = 1'-0"
140
0.75
141
12.0
290
     0
  0
SCALE
  5
352
102
{ACAD_REACTORS
330
345
102
}
330
345
100
AcDbScale
 70
     0
300
1" = 1'-0"
140
1.0
141
12.0
290
     0
  0
SCALE
  5
353
102
{ACAD_REACTORS
330
345
102
}
330
345
100
AcDbScale
 70
     0
300
1-1/2" = 1'-0"
140
1.5
141
12.0
290
     0
  0
SCALE
  5
354
102
{ACAD_REACTORS
330
345
102
}
330
345
100
AcDbScale
 70
     0
300
3" = 1'-0"
140
3.0
141
12.0
290
     0
  0
SCALE
  5
355
102
{ACAD_REACTORS
330
345
102
}
330
345
100
AcDbScale
 70
     0
300
6" = 1'-0"
140
6.0
141
12.0
290
     0
  0
SCALE
  5
356
102
{ACAD_REACTORS
330
345
102
}
330
345
100
AcDbScale
 70
     0
300
1'-0" = 1'-0"
140
12.0
141
12.0
290
     0
  0
ACDBSECTIONVIEWSTYLE
  5
3D8
102
{ACAD_XDICTIONARY
360
42B
102
}
102
{ACAD_REACTORS
330
384
102
}
330
384
100
AcDbModelDocViewStyle
 70
     0
  3
Imperial24
290
     0
100
AcDbSectionViewStyle
 70
     0
 71
     0
 90
       78
 71
     1
340
12
 40
0.24
340
0
340
0
 40
0.24
300
I, O, Q, S, X, Z
 40
0.48
 90
        3
 40
0.18
 90
        1
 71
     2
340
16
 90
       25
340
16
 90
       50
 40
0.24
 40
0.0
 40
0.24
 71
     3
340
12
 40
0.24
 90
        1
 40
0.75
 90
        1
300
%<\AcVar ViewType \f "%tc1">% %<\AcVar ViewSectionStartId>%-%<\AcVar ViewSectionEndId>%\PSCALE %<\AcVar ViewScale \f "%sn">%
 71
     4
300
ANSI31
 40
1.0
 90
        0
290
     0
290
     0
 90
        6
 40
0.0
 40
1.570796326794896
 40
0.2617993877991494
 40
1.308996938995747
 40
-0.2617993877991494
 40
1.832595714594046
  0
TABLESTYLE
  5
379
102
{ACAD_XDICTIONARY
360
3EA
102
}
102
{ACAD_REACTORS
330
378
102
}
330
378
100
AcDbTableStyle
  3
Standard
 70
     0
 71
     0
 40
0.06
 41
0.06
280
     0
281
     0
  7
STANDARD
140
0.18
170
     2
 62
     0
 63
     7
283
     0
274
    -2
284
     1
 64
     0
275
    -2
285
     1
 65
     0
276
    -2
286
     1
 66
     0
277
    -2
287
     1
 67
     0
278
    -2
288
     1
 68
     0
279
    -2
289
     1
 69
     0
  7
STANDARD
140
0.25
170
     5
 62
     0
 63
     7
283
     0
274
    -2
284
     1
 64
     0
275
    -2
285
     1
 65
     0
276
    -2
286
     1
 66
     0
277
    -2
287
     1
 67
     0
278
    -2
288
     1
 68
     0
279
    -2
289
     1
 69
     0
  7
STANDARD
140
0.18
170
     5
 62
     0
 63
     7
283
     0
274
    -2
284
     1
 64
     0
275
    -2
285
     1
 65
     0
276
    -2
286
     1
 66
     0
277
    -2
287
     1
 67
     0
278
    -2
288
     1
 68
     0
279
    -2
289
     1
 69
     0
  0
VISUALSTYLE
  5
360
102
{ACAD_XDICTIONARY
360
3FC
102
}
102
{ACAD_REACTORS
330
35B
102
}
330
35B
100
AcDbVisualStyle
  2
2dWireframe
 70
     4
 71
     0
 72
     2
 73
     0
 90
        0
 40
-0.6
 41
-30.0
 62
     5
 63
     7
 74
     1
 91
        4
 64
     7
 65
   257
 75
     1
175
     1
 42
1.0
 92
        0
 66
   257
 43
1.0
 76
     1
 77
     6
 78
     2
 67
     7
 79
     5
170
     0
171
     0
290
     0
174
     0
 93
        1
 44
0.0
173
     0
291
     0
 45
0.0
1001
ACAD
1000
AcDbSavedByObjectVersion
1070
     0
  0
VISUALSTYLE
  5
363
102
{ACAD_XDICTIONARY
360
402
102
}
102
{ACAD_REACTORS
330
35B
102
}
330
35B
100
AcDbVisualStyle
  2
Basic
 70
     7
 71
     1
 72
     0
 73
     1
 90
        0
 40
-0.6
 41
-30.0
 62
     5
 63
     7
 74
     0
 91
        4
 64
     7
 65
   257
 75
     1
175
     1
 42
1.0
 92
        8
 66
     7
 43
1.0
 76
     1
 77
     6
 78
     2
 67
     7
 79
     5
170
     0
171
     0
290
     0
174
     0
 93
        1
 44
0.0
173
     0
291
     1
 45
0.0
1001
ACAD
1000
AcDbSavedByObjectVersion
1070
     0
  0
VISUALSTYLE
  5
367
102
{ACAD_XDICTIONARY
360
40A
102
}
102
{ACAD_REACTORS
330
35B
102
}
330
35B
100
AcDbVisualStyle
  2
Brighten
 70
    12
 71
     2
 72
     2
 73
     0
 90
        0
 40
-0.6
 41
-30.0
 62
     5
 63
     7
 74
     1
 91
        4
 64
     7
 65
   257
 75
     1
175
     1
 42
1.0
 92
        8
 66
     7
 43
1.0
 76
     1
 77
     6
 78
     2
 67
     7
 79
     5
170
     0
171
     0
290
     0
174
     0
 93
        1
 44
50.0
173
     0
291
     1
 45
0.0
1001
ACAD
1000
AcDbSavedByObjectVersion
1070
     0
  0
VISUALSTYLE
  5
36B
102
{ACAD_XDICTIONARY
360
412
102
}
102
{ACAD_REACTORS
330
35B
102
}
330
35B
100
AcDbVisualStyle
  2
ColorChange
 70
    16
 71
     2
 72
     2
 73
     3
 90
        0
 40
-0.6
 41
-30.0
 62
     5
 63
     8
 74
     1
 91
        4
 64
     7
 65
   257
 75
     1
175
     1
 42
1.0
 92
        8
 66
     8
 43
1.0
 76
     1
 77
     6
 78
     2
 67
     7
 79
     5
170
     0
171
     0
290
     0
174
     0
 93
        1
 44
0.0
173
     0
291
     1
 45
0.0
1001
ACAD
1000
AcDbSavedByObjectVersion
1070
     0
  0
VISUALSTYLE
  5
365
102
{ACAD_XDICTIONARY
360
406
102
}
102
{ACAD_REACTORS
330
35B
102
}
330
35B
100
AcDbVisualStyle
  2
Conceptual
 70
     9
 71
     3
 72
     2
 73
     0
 90
        0
 40
-0.6
 41
-30.0
 62
     5
 63
     7
 74
     2
 91
        2
 64
     7
 65
   257
 75
     1
175
     1
 42
40.0
 92
        8
 66
     7
 43
1.0
 76
     1
 77
     6
 78
     2
 67
     7
 79
     3
170
     0
171
     0
290
     0
174
     0
 93
        1
 44
0.0
173
     0
291
     0
 45
0.0
1001
ACAD
1000
AcDbSavedByObjectVersion
1070
     0
  0
VISUALSTYLE
  5
366
102
{ACAD_XDICTIONARY
360
408
102
}
102
{ACAD_REACTORS
330
35B
102
}
330
35B
100
AcDbVisualStyle
  2
Dim
 70
    11
 71
     2
 72
     2
 73
     0
 90
        0
 40
-0.6
 41
-30.0
 62
     5
 63
     7
 74
     1
 91
        4
 64
     7
 65
   257
 75
     1
175
     1
 42
1.0
 92
        8
 66
     7
 43
1.0
 76
     1
 77
     6
 78
     2
 67
     7
 79
     5
170
     0
171
     0
290
     0
174
     0
 93
        1
 44
-50.0
173
     0
291
     1
 45
0.0
1001
ACAD
1000
AcDbSavedByObjectVersion
1070
     0
  0
VISUALSTYLE
  5
36E
102
{ACAD_XDICTIONARY
360
418
102
}
102
{ACAD_REACTORS
330
35B
102
}
330
35B
100
AcDbVisualStyle
  2
EdgeColorOff
 70
    22
 71
     2
 72
     2
 73
     0
 90
        0
 40
-0.6
 41
-30.0
 62
     5
 63
     7
 74
     1
 91
        4
 64
     7
 65
   257
 75
     1
175
     1
 42
1.0
 92
        8
 66
     7
 43
1.0
 76
     1
 77
     6
 78
     2
 67
     7
 79
     5
170
     0
171
     0
290
     0
174
     0
 93
        1
 44
0.0
173
     0
291
     1
 45
0.0
1001
ACAD
1000
AcDbSavedByObjectVersion
1070
     0
  0
VISUALSTYLE
  5
36A
102
{ACAD_XDICTIONARY
360
410
102
}
102
{ACAD_REACTORS
330
35B
102
}
330
35B
100
AcDbVisualStyle
  2
Facepattern
 70
    15
 71
     2
 72
     2
 73
     0
 90
        0
 40
-0.6
 41
-30.0
 62
     5
 63
     7
 74
     1
 91
        4
 64
     7
 65
   257
 75
     1
175
     1
 42
1.0
 92
        8
 66
     7
 43
1.0
 76
     1
 77
     6
 78
     2
 67
     7
 79
     5
170
     0
171
     0
290
     0
174
     0
 93
        1
 44
0.0
173
     0
291
     1
 45
0.0
1001
ACAD
1000
AcDbSavedByObjectVersion
1070
     0
  0
VISUALSTYLE
  5
35C
102
{ACAD_XDICTIONARY
360
3F4
102
}
102
{ACAD_REACTORS
330
35B
102
}
330
35B
100
AcDbVisualStyle
  2
Flat
 70
     0
 71
     2
 72
     1
 73
     1
 90
        2
 40
-0.6
 41
30.0
 62
     5
 63
     7
 74
     0
 91
        4
 64
     7
 65
   257
 75
     1
175
     1
 42
1.0
 92
        8
 66
     7
 43
1.0
 76
     1
 77
     6
 78
     2
 67
     7
 79
     5
170
     0
171
     0
290
     0
174
     0
 93
       13
 44
0.0
173
     0
291
     1
 45
0.0
1001
ACAD
1000
AcDbSavedByObjectVersion
1070
     0
  0
VISUALSTYLE
  5
35D
102
{ACAD_XDICTIONARY
360
3F6
102
}
102
{ACAD_REACTORS
330
35B
102
}
330
35B
100
AcDbVisualStyle
  2
FlatWithEdges
 70
     1
 71
     2
 72
     1
 73
     1
 90
        2
 40
-0.6
 41
30.0
 62
     5
 63
     7
 74
     1
 91
        4
 64
     7
 65
   257
 75
     1
175
     1
 42
1.0
 92
        0
 66
   257
 43
1.0
 76
     1
 77
     6
 78
     2
 67
     7
 79
     5
170
     0
171
     0
290
     0
174
     0
 93
       13
 44
0.0
173
     0
291
     1
 45
0.0
1001
ACAD
1000
AcDbSavedByObjectVersion
1070
     0
  0
VISUALSTYLE
  5
35E
102
{ACAD_XDICTIONARY
360
3F8
102
}
102
{ACAD_REACTORS
330
35B
102
}
330
35B
100
AcDbVisualStyle
  2
Gouraud
 70
     2
 71
     2
 72
     2
 73
     1
 90
        2
 40
-0.6
 41
30.0
 62
     5
 63
     7
 74
     0
 91
        4
 64
     7
 65
   257
 75
     1
175
     1
 42
1.0
 92
        0
 66
     7
 43
1.0
 76
     1
 77
     6
 78
     2
 67
     7
 79
     5
170
     0
171
     0
290
     0
174
     0
 93
       13
 44
0.0
173
     0
291
     1
 45
0.0
1001
ACAD
1000
AcDbSavedByObjectVersion
1070
     0
  0
VISUALSTYLE
  5
35F
102
{ACAD_XDICTIONARY
360
3FA
102
}
102
{ACAD_REACTORS
330
35B
102
}
330
35B
100
AcDbVisualStyle
  2
GouraudWithEdges
 70
     3
 71
     2
 72
     2
 73
     1
 90
        2
 40
-0.6
 41
30.0
 62
     5
 63
     7
 74
     1
 91
        4
 64
     7
 65
   257
 75
     1
175
     1
 42
1.0
 92
        0
 66
   257
 43
1.0
 76
     1
 77
     6
 78
     2
 67
     7
 79
     5
170
     0
171
     0
290
     0
174
     0
 93
       13
 44
0.0
173
     0
291
     1
 45
0.0
1001
ACAD
1000
AcDbSavedByObjectVersion
1070
     0
  0
VISUALSTYLE
  5
362
102
{ACAD_XDICTIONARY
360
400
102
}
102
{ACAD_REACTORS
330
35B
102
}
330
35B
100
AcDbVisualStyle
  2
Hidden
 70
     6
 71
     1
 72
     2
 73
     2
 90
        0
 40
-0.6
 41
-30.0
 62
     5
 63
     7
 74
     2
 91
        2
 64
     7
 65
   257
 75
     2
175
     1
 42
40.0
 92
        0
 66
   257
 43
1.0
 76
     1
 77
     6
 78
     2
 67
     7
 79
     3
170
     0
171
     0
290
     0
174
     0
 93
        1
 44
0.0
173
     0
291
     0
 45
0.0
1001
ACAD
1000
AcDbSavedByObjectVersion
1070
     0
  0
VISUALSTYLE
  5
36C
102
{ACAD_XDICTIONARY
360
414
102
}
102
{ACAD_REACTORS
330
35B
102
}
330
35B
100
AcDbVisualStyle
  2
JitterOff
 70
    20
 71
     2
 72
     2
 73
     0
 90
        0
 40
-0.6
 41
-30.0
 62
     5
 63
     7
 74
     1
 91
        4
 64
     7
 65
   257
 75
     1
175
     1
 42
1.0
 92
       10
 66
     7
 43
1.0
 76
     1
 77
     6
 78
     2
 67
     7
 79
     5
170
     0
171
     0
290
     0
174
     0
 93
        1
 44
0.0
173
     0
291
     1
 45
0.0
1001
ACAD
1000
AcDbSavedByObjectVersion
1070
     0
  0
VISUALSTYLE
  5
369
102
{ACAD_XDICTIONARY
360
40E
102
}
102
{ACAD_REACTORS
330
35B
102
}
330
35B
100
AcDbVisualStyle
  2
Linepattern
 70
    14
 71
     2
 72
     2
 73
     0
 90
        0
 40
-0.6
 41
-30.0
 62
     5
 63
     7
 74
     1
 91
        4
 64
     7
 65
   257
 75
     7
175
     7
 42
1.0
 92
        8
 66
     7
 43
1.0
 76
     1
 77
     6
 78
     2
 67
     7
 79
     5
170
     0
171
     0
290
     0
174
     0
 93
        1
 44
0.0
173
     0
291
     1
 45
0.0
1001
ACAD
1000
AcDbSavedByObjectVersion
1070
     0
  0
VISUALSTYLE
  5
36D
102
{ACAD_XDICTIONARY
360
416
102
}
102
{ACAD_REACTORS
330
35B
102
}
330
35B
100
AcDbVisualStyle
  2
OverhangOff
 70
    21
 71
     2
 72
     2
 73
     0
 90
        0
 40
-0.6
 41
-30.0
 62
     5
 63
     7
 74
     1
 91
        4
 64
     7
 65
   257
 75
     1
175
     1
 42
1.0
 92
        9
 66
     7
 43
1.0
 76
     1
 77
     6
 78
     2
 67
     7
 79
     5
170
     0
171
     0
290
     0
174
     0
 93
        1
 44
0.0
173
     0
291
     1
 45
0.0
1001
ACAD
1000
AcDbSavedByObjectVersion
1070
     0
  0
VISUALSTYLE
  5
364
102
{ACAD_XDICTIONARY
360
404
102
}
102
{ACAD_REACTORS
330
35B
102
}
330
35B
100
AcDbVisualStyle
  2
Realistic
 70
     8
 71
     2
 72
     3
 73
     0
 90
        2
 40
-0.6
 41
30.0
 62
     5
 63
     7
 74
     0
 91
        0
 64
     7
 65
   257
 75
     1
175
     1
 42
1.0
 92
        8
 66
   257
 43
1.0
 76
     1
 77
     6
 78
     2
 67
     7
 79
     3
170
     0
171
     0
290
     0
174
     0
 93
       13
 44
0.0
173
     0
291
     0
 45
0.0
1001
ACAD
1000
AcDbSavedByObjectVersion
1070
     0
  0
VISUALSTYLE
  5
373
102
{ACAD_XDICTIONARY
360
422
102
}
102
{ACAD_REACTORS
330
35B
102
}
330
35B
100
AcDbVisualStyle
  2
Shaded
 70
    27
 71
     2
 72
     2
 73
     1
 90
        2
 40
-0.6
 41
30.0
 62
     5
 63
     7
 74
     0
 91
        4
 64
     7
 65
   257
 75
     1
175
     1
 42
1.0
 92
        8
 66
   257
 43
1.0
 76
     1
 77
     6
 78
     2
 67
   251
 79
     3
170
     0
171
     0
290
     0
174
     0
 93
        5
 44
0.0
173
     0
291
     0
 45
0.0
1001
ACAD
1000
AcDbSavedByObjectVersion
1070
     0
  0
VISUALSTYLE
  5
372
102
{ACAD_XDICTIONARY
360
420
102
}
102
{ACAD_REACTORS
330
35B
102
}
330
35B
100
AcDbVisualStyle
  2
Shaded with edges
 70
    26
 71
     2
 72
     2
 73
     1
 90
        2
 40
-0.6
 41
30.0
 62
     5
 63
     7
 74
     1
 91
        2
 64
     7
 65
   257
 75
     2
175
     1
 42
1.0
 92
        8
 66
   257
 43
1.0
 76
     1
 77
     6
 78
     2
 67
     7
 79
     3
170
     0
171
     0
290
     0
174
     0
 93
        5
 44
0.0
173
     0
291
     0
 45
0.0
1001
ACAD
1000
AcDbSavedByObjectVersion
1070
     0
  0
VISUALSTYLE
  5
36F
102
{ACAD_XDICTIONARY
360
41A
102
}
102
{ACAD_REACTORS
330
35B
102
}
330
35B
100
AcDbVisualStyle
  2
Shades of Gray
 70
    23
 71
     2
 72
     2
 73
     3
 90
        0
 40
-0.6
 41
-30.0
 62
     5
 63
     7
 74
     2
 91
        2
 64
     7
 65
     7
 75
     1
175
     1
 42
40.0
 92
        8
 66
     7
 43
1.0
 76
     1
 77
     6
 78
     2
 67
     7
 79
     3
170
     0
171
     0
290
     0
174
     0
 93
        1
 44
0.0
173
     0
291
     0
 45
0.0
1001
ACAD
1000
AcDbSavedByObjectVersion
1070
     0
  0
VISUALSTYLE
  5
370
102
{ACAD_XDICTIONARY
360
41C
102
}
102
{ACAD_REACTORS
330
35B
102
}
330
35B
100
AcDbVisualStyle
  2
Sketchy
 70
    24
 71
     1
 72
     2
 73
     2
 90
        0
 40
-0.6
 41
-30.0
 62
     5
 63
     7
 74
     2
 91
        2
 64
     7
 65
     7
 75
     1
175
     1
 42
40.0
 92
       11
 66
     7
 43
1.0
 76
     1
 77
     6
 78
     2
 67
     7
 79
     6
170
     0
171
     0
290
     0
174
     0
 93
        1
 44
0.0
173
     0
291
     0
 45
0.0
1001
ACAD
1000
AcDbSavedByObjectVersion
1070
     0
  0
VISUALSTYLE
  5
368
102
{ACAD_XDICTIONARY
360
40C
102
}
102
{ACAD_REACTORS
330
35B
102
}
330
35B
100
AcDbVisualStyle
  2
Thicken
 70
    13
 71
     2
 72
     2
 73
     0
 90
        0
 40
-0.6
 41
-30.0
 62
     5
 63
     7
 74
     1
 91
        4
 64
     7
 65
   257
 75
     1
175
     1
 42
1.0
 92
       12
 66
     7
 43
1.0
 76
     1
 77
     6
 78
     2
 67
     7
 79
     5
170
     0
171
     0
290
     0
174
     0
 93
        1
 44
0.0
173
     0
291
     1
 45
0.0
1001
ACAD
1000
AcDbSavedByObjectVersion
1070
     0
  0
VISUALSTYLE
  5
361
102
{ACAD_XDICTIONARY
360
3FE
102
}
102
{ACAD_REACTORS
330
35B
102
}
330
35B
100
AcDbVisualStyle
  2
Wireframe
 70
     5
 71
     0
 72
     2
 73
     0
 90
        0
 40
-0.6
 41
-30.0
 62
     5
 63
     7
 74
     1
 91
        4
 64
     7
 65
   257
 75
     1
175
     1
 42
1.0
 92
        0
 66
   257
 43
1.0
 76
     1
 77
     6
 78
     2
 67
     7
 79
     5
170
     0
171
     0
290
     0
174
     0
 93
        1
 44
0.0
173
     0
291
     0
 45
0.0
1001
ACAD
1000
AcDbSavedByObjectVersion
1070
     0
  0
VISUALSTYLE
  5
371
102
{ACAD_XDICTIONARY
360
41E
102
}
102
{ACAD_REACTORS
330
35B
102
}
330
35B
100
AcDbVisualStyle
  2
X-Ray
 70
    25
 71
     2
 72
     2
 73
     1
 90
        1
 40
0.5
 41
-30.0
 62
     5
 63
     7
 74
     1
 91
        0
 64
     7
 65
   257
 75
     1
175
     1
 42
1.0
 92
        8
 66
     7
 43
1.0
 76
     1
 77
     6
 78
     2
 67
     7
 79
     3
170
     0
171
     0
290
     0
174
     0
 93
       13
 44
0.0
173
     0
291
     0
 45
0.0
1001
ACAD
1000
AcDbSavedByObjectVersion
1070
     0
  0
DICTIONARYVAR
  5
37F
102
{ACAD_REACTORS
330
37E
102
}
330
37E
100
DictionaryVariables
280
     0
  1
1:1
  0
DICTIONARYVAR
  5
381
102
{ACAD_REACTORS
330
37E
102
}
330
37E
100
DictionaryVariables
280
     0
  1
STANDARD
  0
DICTIONARYVAR
  5
380
102
{ACAD_REACTORS
330
37E
102
}
330
37E
100
DictionaryVariables
280
     0
  1
STANDARD
  0
DICTIONARYVAR
  5
3DF
102
{ACAD_REACTORS
330
37E
102
}
330
37E
100
DictionaryVariables
280
     0
  1
Imperial24
  0
DICTIONARYVAR
  5
3E0
102
{ACAD_REACTORS
330
37E
102
}
330
37E
100
DictionaryVariables
280
     0
  1
Imperial24
  0
DICTIONARYVAR
  5
3E7
102
{ACAD_REACTORS
330
37E
102
}
330
37E
100
DictionaryVariables
280
     0
  1
1
  0
DICTIONARYVAR
  5
3E6
102
{ACAD_REACTORS
330
37E
102
}
330
37E
100
DictionaryVariables
280
     0
  1
1
  0
DICTIONARYVAR
  5
3E5
102
{ACAD_REACTORS
330
37E
102
}
330
37E
100
DictionaryVariables
280
     0
  1
0
  0
DICTIONARYVAR
  5
3E2
102
{ACAD_REACTORS
330
37E
102
}
330
37E
100
DictionaryVariables
280
     0
  1
0
  0
DICTIONARYVAR
  5
3E3
102
{ACAD_REACTORS
330
37E
102
}
330
37E
100
DictionaryVariables
280
     0
  1
0
  0
DICTIONARYVAR
  5
3E1
102
{ACAD_REACTORS
330
37E
102
}
330
37E
100
DictionaryVariables
280
     0
  1
2
  0
DICTIONARYVAR
  5
382
102
{ACAD_REACTORS
330
37E
102
}
330
37E
100
DictionaryVariables
280
     0
  1
0
  0
DICTIONARYVAR
  5
3E8
102
{ACAD_REACTORS
330
37E
102
}
330
37E
100
DictionaryVariables
280
     0
  1
1
  0
DICTIONARYVAR
  5
3E4
102
{ACAD_REACTORS
330
37E
102
}
330
37E
100
DictionaryVariables
280
     0
  1
127
  0
DICTIONARYVAR
  5
399
102
{ACAD_REACTORS
330
37E
102
}
330
37E
100
DictionaryVariables
280
     0
  1
0
  0
DICTIONARY
  5
42D
330
3D9
100
AcDbDictionary
280
     1
281
     1
  3
ACAD_XREC_ROUNDTRIP
360
42E
  0
DICTIONARY
  5
3F2
330
1E
100
AcDbDictionary
280
     1
281
     1
  3
ACAD_XREC_ROUNDTRIP
360
3F3
  0
DICTIONARY
  5
3F0
330
1C
100
AcDbDictionary
280
     1
281
     1
  3
ACAD_XREC_ROUNDTRIP
360
3F1
  0
DICTIONARY
  5
426
330
376
100
AcDbDictionary
280
     1
281
     1
  3
ACAD_XREC_ROUNDTRIP
360
427
  0
DICTIONARY
  5
424
330
375
100
AcDbDictionary
280
     1
281
     1
  3
ACAD_XREC_ROUNDTRIP
360
425
  0
DICTIONARY
  5
428
330
377
100
AcDbDictionary
280
     1
281
     1
  3
ACAD_XREC_ROUNDTRIP
360
429
  0
DICTIONARY
  5
42B
330
3D8
100
AcDbDictionary
280
     1
281
     1
  3
ACAD_XREC_ROUNDTRIP
360
42C
  0
DICTIONARY
  5
3EA
330
379
100
AcDbDictionary
280
     1
281
     1
  3
ACAD_ROUNDTRIP_2008_TABLESTYLE_CELLSTYLEMAP
360
3EB
  3
ACAD_XREC_ROUNDTRIP
360
42A
  0
DICTIONARY
  5
3FC
330
360
100
AcDbDictionary
280
     1
281
     1
  3
ACAD_XREC_ROUNDTRIP
360
3FD
  0
DICTIONARY
  5
402
330
363
100
AcDbDictionary
280
     1
281
     1
  3
ACAD_XREC_ROUNDTRIP
360
403
  0
DICTIONARY
  5
40A
330
367
100
AcDbDictionary
280
     1
281
     1
  3
ACAD_XREC_ROUNDTRIP
360
40B
  0
DICTIONARY
  5
412
330
36B
100
AcDbDictionary
280
     1
281
     1
  3
ACAD_XREC_ROUNDTRIP
360
413
  0
DICTIONARY
  5
406
330
365
100
AcDbDictionary
280
     1
281
     1
  3
ACAD_XREC_ROUNDTRIP
360
407
  0
DICTIONARY
  5
408
330
366
100
AcDbDictionary
280
     1
281
     1
  3
ACAD_XREC_ROUNDTRIP
360
409
  0
DICTIONARY
  5
418
330
36E
100
AcDbDictionary
280
     1
281
     1
  3
ACAD_XREC_ROUNDTRIP
360
419
  0
DICTIONARY
  5
410
330
36A
100
AcDbDictionary
280
     1
281
     1
  3
ACAD_XREC_ROUNDTRIP
360
411
  0
DICTIONARY
  5
3F4
330
35C
100
AcDbDictionary
280
     1
281
     1
  3
ACAD_XREC_ROUNDTRIP
360
3F5
  0
DICTIONARY
  5
3F6
330
35D
100
AcDbDictionary
280
     1
281
     1
  3
ACAD_XREC_ROUNDTRIP
360
3F7
  0
DICTIONARY
  5
3F8
330
35E
100
AcDbDictionary
280
     1
281
     1
  3
ACAD_XREC_ROUNDTRIP
360
3F9
  0
DICTIONARY
  5
3FA
330
35F
100
AcDbDictionary
280
     1
281
     1
  3
ACAD_XREC_ROUNDTRIP
360
3FB
  0
DICTIONARY
  5
400
330
362
100
AcDbDictionary
280
     1
281
     1
  3
ACAD_XREC_ROUNDTRIP
360
401
  0
DICTIONARY
  5
414
330
36C
100
AcDbDictionary
280
     1
281
     1
  3
ACAD_XREC_ROUNDTRIP
360
415
  0
DICTIONARY
  5
40E
330
369
100
AcDbDictionary
280
     1
281
     1
  3
ACAD_XREC_ROUNDTRIP
360
40F
  0
DICTIONARY
  5
416
330
36D
100
AcDbDictionary
280
     1
281
     1
  3
ACAD_XREC_ROUNDTRIP
360
417
  0
DICTIONARY
  5
404
330
364
100
AcDbDictionary
280
     1
281
     1
  3
ACAD_XREC_ROUNDTRIP
360
405
  0
DICTIONARY
  5
422
330
373
100
AcDbDictionary
280
     1
281
     1
  3
ACAD_XREC_ROUNDTRIP
360
423
  0
DICTIONARY
  5
420
330
372
100
AcDbDictionary
280
     1
281
     1
  3
ACAD_XREC_ROUNDTRIP
360
421
  0
DICTIONARY
  5
41A
330
36F
100
AcDbDictionary
280
     1
281
     1
  3
ACAD_XREC_ROUNDTRIP
360
41B
  0
DICTIONARY
  5
41C
330
370
100
AcDbDictionary
280
     1
281
     1
  3
ACAD_XREC_ROUNDTRIP
360
41D
  0
DICTIONARY
  5
40C
330
368
100
AcDbDictionary
280
     1
281
     1
  3
ACAD_XREC_ROUNDTRIP
360
40D
  0
DICTIONARY
  5
3FE
330
361
100
AcDbDictionary
280
     1
281
     1
  3
ACAD_XREC_ROUNDTRIP
360
3FF
  0
DICTIONARY
  5
41E
330
371
100
AcDbDictionary
280
     1
281
     1
  3
ACAD_XREC_ROUNDTRIP
360
41F
  0
XRECORD
  5
42E
102
{ACAD_REACTORS
330
42D
102
}
330
42D
100
AcDbXrecord
280
     1
102
DISPLAYNAME
  1
Imperial24
102
FLAGS
 90
        0
  0
XRECORD
  5
3F3
102
{ACAD_REACTORS
330
3F2
102
}
330
3F2
100
AcDbXrecord
280
     1
102
SHADEPLOT
 70
     0
102
SHADEPLOTRESLEVEL
 70
     2
102
SHADEPLOTCUSTOMDPI
 70
   300
  0
XRECORD
  5
3F1
102
{ACAD_REACTORS
330
3F0
102
}
330
3F0
100
AcDbXrecord
280
     1
102
SHADEPLOT
 70
     0
102
SHADEPLOTRESLEVEL
 70
     2
102
SHADEPLOTCUSTOMDPI
 70
   300
  0
XRECORD
  5
427
102
{ACAD_REACTORS
330
426
102
}
330
426
100
AcDbXrecord
280
     1
102
MATERIAL
148
0.0
149
0.0
149
0.0
 93
        0
 94
      127
282
     0
 72
     1
 77
     1
171
     1
175
     1
179
     1
273
     0
  0
XRECORD
  5
425
102
{ACAD_REACTORS
330
424
102
}
330
424
100
AcDbXrecord
280
     1
102
MATERIAL
148
0.0
149
0.0
149
0.0
 93
        0
 94
      127
282
     0
 72
     1
 77
     1
171
     1
175
     1
179
     1
273
     0
  0
XRECORD
  5
429
102
{ACAD_REACTORS
330
428
102
}
330
428
100
AcDbXrecord
280
     1
102
MATERIAL
148
0.0
149
0.0
149
0.0
 93
        0
 94
      127
282
     0
 72
     1
 77
     1
171
     1
175
     1
179
     1
273
     0
  0
XRECORD
  5
42C
102
{ACAD_REACTORS
330
42B
102
}
330
42B
100
AcDbXrecord
280
     1
102
DISPLAYNAME
  1
Imperial24
102
FLAGS
 90
        0
  0
CELLSTYLEMAP
  5
3EB
102
{ACAD_REACTORS
330
3EA
102
}
330
3EA
100
AcDbCellStyleMap
 90
        3
300
CELLSTYLE
  1
TABLEFORMAT_BEGIN
 90
        5
170
     1
 91
        0
 92
    32768
 62
   257
 93
        1
300
CONTENTFORMAT
  1
CONTENTFORMAT_BEGIN
 90
        0
 91
        0
 92
      512
 93
        0
300

 40
0.0
140
1.0
 94
        5
 62
     0
340
12
144
0.25
309
CONTENTFORMAT_END
171
     1
301
MARGIN
  1
CELLMARGIN_BEGIN
 40
0.06
 40
0.06
 40
0.06
 40
0.06
 40
0.06
 40
0.06
309
CELLMARGIN_END
 94
        6
 95
        1
302
GRIDFORMAT
  1
GRIDFORMAT_BEGIN
 90
        0
 91
        1
 62
     0
 92
       -2
340
14
 93
        0
 40
0.045
309
GRIDFORMAT_END
 95
        2
302
GRIDFORMAT
  1
GRIDFORMAT_BEGIN
 90
        0
 91
        1
 62
     0
 92
       -2
340
14
 93
        0
 40
0.045
309
GRIDFORMAT_END
 95
        4
302
GRIDFORMAT
  1
GRIDFORMAT_BEGIN
 90
        0
 91
        1
 62
     0
 92
       -2
340
14
 93
        0
 40
0.045
309
GRIDFORMAT_END
 95
        8
302
GRIDFORMAT
  1
GRIDFORMAT_BEGIN
 90
        0
 91
        1
 62
     0
 92
       -2
340
14
 93
        0
 40
0.045
309
GRIDFORMAT_END
 95
       16
302
GRIDFORMAT
  1
GRIDFORMAT_BEGIN
 90
        0
 91
        1
 62
     0
 92
       -2
340
14
 93
        0
 40
0.045
309
GRIDFORMAT_END
 95
       32
302
GRIDFORMAT
  1
GRIDFORMAT_BEGIN
 90
        0
 91
        1
 62
     0
 92
       -2
340
14
 93
        0
 40
0.045
309
GRIDFORMAT_END
309
TABLEFORMAT_END
  1
CELLSTYLE_BEGIN
 90
        1
 91
        1
300
_TITLE
309
CELLSTYLE_END
300
CELLSTYLE
  1
TABLEFORMAT_BEGIN
 90
        5
170
     1
 91
        0
 92
        0
 62
   257
 93
        1
300
CONTENTFORMAT
  1
CONTENTFORMAT_BEGIN
 90
        0
 91
        0
 92
      512
 93
        0
300

 40
0.0
140
1.0
 94
        5
 62
     0
340
12
144
0.18
309
CONTENTFORMAT_END
171
     1
301
MARGIN
  1
CELLMARGIN_BEGIN
 40
0.06
 40
0.06
 40
0.06
 40
0.06
 40
0.06
 40
0.06
309
CELLMARGIN_END
 94
        6
 95
        1
302
GRIDFORMAT
  1
GRIDFORMAT_BEGIN
 90
        0
 91
        1
 62
     0
 92
       -2
340
14
 93
        0
 40
0.045
309
GRIDFORMAT_END
 95
        2
302
GRIDFORMAT
  1
GRIDFORMAT_BEGIN
 90
        0
 91
        1
 62
     0
 92
       -2
340
14
 93
        0
 40
0.045
309
GRIDFORMAT_END
 95
        4
302
GRIDFORMAT
  1
GRIDFORMAT_BEGIN
 90
        0
 91
        1
 62
     0
 92
       -2
340
14
 93
        0
 40
0.045
309
GRIDFORMAT_END
 95
        8
302
GRIDFORMAT
  1
GRIDFORMAT_BEGIN
 90
        0
 91
        1
 62
     0
 92
       -2
340
14
 93
        0
 40
0.045
309
GRIDFORMAT_END
 95
       16
302
GRIDFORMAT
  1
GRIDFORMAT_BEGIN
 90
        0
 91
        1
 62
     0
 92
       -2
340
14
 93
        0
 40
0.045
309
GRIDFORMAT_END
 95
       32
302
GRIDFORMAT
  1
GRIDFORMAT_BEGIN
 90
        0
 91
        1
 62
     0
 92
       -2
340
14
 93
        0
 40
0.045
309
GRIDFORMAT_END
309
TABLEFORMAT_END
  1
CELLSTYLE_BEGIN
 90
        2
 91
        1
300
_HEADER
309
CELLSTYLE_END
300
CELLSTYLE
  1
TABLEFORMAT_BEGIN
 90
        5
170
     1
 91
        0
 92
        0
 62
   257
 93
        1
300
CONTENTFORMAT
  1
CONTENTFORMAT_BEGIN
 90
        0
 91
        0
 92
      512
 93
        0
300

 40
0.0
140
1.0
 94
        2
 62
     0
340
12
144
0.18
309
CONTENTFORMAT_END
171
     1
301
MARGIN
  1
CELLMARGIN_BEGIN
 40
0.06
 40
0.06
 40
0.06
 40
0.06
 40
0.06
 40
0.06
309
CELLMARGIN_END
 94
        6
 95
        1
302
GRIDFORMAT
  1
GRIDFORMAT_BEGIN
 90
        0
 91
        1
 62
     0
 92
       -2
340
14
 93
        0
 40
0.045
309
GRIDFORMAT_END
 95
        2
302
GRIDFORMAT
  1
GRIDFORMAT_BEGIN
 90
        0
 91
        1
 62
     0
 92
       -2
340
14
 93
        0
 40
0.045
309
GRIDFORMAT_END
 95
        4
302
GRIDFORMAT
  1
GRIDFORMAT_BEGIN
 90
        0
 91
        1
 62
     0
 92
       -2
340
14
 93
        0
 40
0.045
309
GRIDFORMAT_END
 95
        8
302
GRIDFORMAT
  1
GRIDFORMAT_BEGIN
 90
        0
 91
        1
 62
     0
 92
       -2
340
14
 93
        0
 40
0.045
309
GRIDFORMAT_END
 95
       16
302
GRIDFORMAT
  1
GRIDFORMAT_BEGIN
 90
        0
 91
        1
 62
     0
 92
       -2
340
14
 93
        0
 40
0.045
309
GRIDFORMAT_END
 95
       32
302
GRIDFORMAT
  1
GRIDFORMAT_BEGIN
 90
        0
 91
        1
 62
     0
 92
       -2
340
14
 93
        0
 40
0.045
309
GRIDFORMAT_END
309
TABLEFORMAT_END
  1
CELLSTYLE_BEGIN
 90
        3
 91
        2
300
_DATA
309
CELLSTYLE_END
  0
XRECORD
  5
42A
102
{ACAD_REACTORS
330
3EA
102
}
330
3EA
100
AcDbXrecord
280
     1
102
ACAD_ROUNDTRIP_PRE2007_TABLESTYLE
 90
      512
 91
        0
  1

 92
      512
 93
        0
  2

 94
      512
 95
        0
  3

  0
XRECORD
  5
3FD
102
{ACAD_REACTORS
330
3FC
102
}
330
3FC
100
AcDbXrecord
280
     1
102
RTVSPost2010Prop28
280
     1
102
RTVSPost2010PropOp28
 70
     1
102
RTVSPost2010Prop29
280
     1
102
RTVSPost2010PropOp29
 70
     1
102
RTVSPost2010Prop30
280
     0
102
RTVSPost2010PropOp30
 70
     1
102
RTVSPost2010Prop31
280
     0
102
RTVSPost2010PropOp31
 70
     1
102
RTVSPost2010Prop32
280
     0
102
RTVSPost2010PropOp32
 70
     1
102
RTVSPost2010Prop33
280
     0
102
RTVSPost2010PropOp33
 70
     1
102
RTVSPost2010Prop34
280
     0
102
RTVSPost2010PropOp34
 70
     1
102
RTVSPost2010Prop35
280
     0
102
RTVSPost2010PropOp35
 70
     1
102
RTVSPost2010Prop36
280
     0
102
RTVSPost2010PropOp36
 70
     1
102
RTVSPost2010Prop37
 90
       50
102
RTVSPost2010PropOp37
 70
     1
102
RTVSPost2010Prop38
140
0.0
102
RTVSPost2010PropOp38
 70
     1
102
RTVSPost2010Prop39
140
1.0
102
RTVSPost2010PropOp39
 70
     1
102
RTVSPost2010Prop40
 90
        0
102
RTVSPost2010PropOp40
 70
     1
102
RTVSPost2010Prop41ColorIndex
 90
       18
102
RTVSPost2010Prop41ColorRGB
 90
        0
102
RTVSPost2010PropOp41
 70
     1
102
RTVSPost2010Prop42
 90
       50
102
RTVSPost2010PropOp42
 70
     1
102
RTVSPost2010Prop43
 90
        3
102
RTVSPost2010PropOp43
 70
     1
102
RTVSPost2010Prop44ColorIndex
 90
        5
102
RTVSPost2010Prop44ColorRGB
 90
      255
102
RTVSPost2010PropOp44
 70
     1
102
RTVSPost2010Prop45
280
     0
102
RTVSPost2010PropOp45
 70
     1
102
RTVSPost2010Prop46
 90
       50
102
RTVSPost2010PropOp46
 70
     1
102
RTVSPost2010Prop47
 90
       50
102
RTVSPost2010PropOp47
 70
     1
102
RTVSPost2010Prop48
 90
       50
102
RTVSPost2010PropOp48
 70
     1
102
RTVSPost2010Prop49
280
     0
102
RTVSPost2010PropOp49
 70
     1
102
RTVSPost2010Prop50
 90
       50
102
RTVSPost2010PropOp50
 70
     1
102
RTVSPost2010Prop51ColorIndex
 90
      256
102
RTVSPost2010Prop51ColorRGB
 90
-16777216
102
RTVSPost2010PropOp51
 70
     0
102
RTVSPost2010Prop52
140
1.0
102
RTVSPost2010PropOp52
 70
     0
102
RTVSPost2010Prop53
 90
        2
102
RTVSPost2010PropOp53
 70
     1
102
RTVSPost2010Prop54
  1
strokes_ogs.tif
102
RTVSPost2010PropOp54
 70
     1
102
RTVSPost2010Prop55
280
     0
102
RTVSPost2010PropOp55
 70
     1
102
RTVSPost2010Prop56
140
1.0
102
RTVSPost2010PropOp56
 70
     1
102
RTVSPost2010Prop57
140
1.0
102
RTVSPost2010PropOp57
 70
     1
102
RTVSPropertyOp0
 70
     1
102
RTVSPropertyOp1
 70
     1
102
RTVSPropertyOp2
 70
     1
102
RTVSPropertyOp3
 70
     1
102
RTVSPropertyOp4
 70
     1
102
RTVSPropertyOp5
 70
     1
102
RTVSPropertyOp6
 70
     1
102
RTVSPropertyOp7
 70
     1
102
RTVSPropertyOp8
 70
     1
102
RTVSPropertyOp9
 70
     1
102
RTVSPropertyOp10
 70
     1
102
RTVSPropertyOp11
 70
     1
102
RTVSPropertyOp12
 70
     1
102
RTVSPropertyOp13
 70
     1
102
RTVSPropertyOp14
 70
     1
102
RTVSPropertyOp15
 70
     1
102
RTVSPropertyOp16
 70
     1
102
RTVSPropertyOp17
 70
     1
102
RTVSPropertyOp18
 70
     1
102
RTVSPropertyOp19
 70
     1
102
RTVSPropertyOp20
 70
     1
102
RTVSPropertyOp21
 70
     1
102
RTVSPropertyOp22
 70
     1
102
RTVSPropertyOp23
 70
     1
102
RTVSPropertyOp24
 70
     1
102
RTVSPropertyOp25
 70
     1
102
RTVSPropertyOp26
 70
     1
102
RTVSPropertyOp27
 70
     1
102
RTVSPropertyOp28
 70
     1
102
RTVSPropertyOp29
 70
     1
102
RTVSPropertyOp30
 70
     1
102
RTVSPropertyOp31
 70
     1
102
RTVSPropertyOp32
 70
     1
102
RTVSPropertyOp33
 70
     1
102
RTVSPropertyOp34
 70
     1
102
RTVSPropertyOp35
 70
     1
102
RTVSPropertyOp36
 70
     1
102
RTVSPropertyOp37
 70
     1
102
RTVSPropertyOp38
 70
     1
102
RTVSPropertyOp39
 70
     1
102
RTVSPropertyOp40
 70
     1
102
RTVSPropertyOp41
 70
     1
102
RTVSPropertyOp42
 70
     1
102
RTVSPropertyOp43
 70
     1
102
RTVSPropertyOp44
 70
     1
102
RTVSPropertyOp45
 70
     1
102
RTVSPropertyOp46
 70
     1
102
RTVSPropertyOp47
 70
     1
102
RTVSPropertyOp48
 70
     1
102
RTVSPropertyOp49
 70
     1
102
RTVSPropertyOp50
 70
     1
102
RTVSPropertyOp51
 70
     0
102
RTVSPropertyOp52
 70
     0
102
RTVSPropertyOp53
 70
     1
102
RTVSPropertyOp54
 70
     1
102
RTVSPropertyOp55
 70
     1
102
RTVSPropertyOp56
 70
     1
102
RTVSPropertyOp57
 70
     1
102
RTVSPropertyOp58
 70
     1
102
RTVSPropertyOp59
 70
     1
102
RTVSPropertyOp60
 70
     1
102
RTVSPropertyOp61
 70
     1
102
RTVSPropertyOp62
 70
     1
  0
XRECORD
  5
403
102
{ACAD_REACTORS
330
402
102
}
330
402
100
AcDbXrecord
280
     1
102
RTVSPost2010Prop28
280
     0
102
RTVSPost2010PropOp28
 70
     1
102
RTVSPost2010Prop29
280
     1
102
RTVSPost2010PropOp29
 70
     1
102
RTVSPost2010Prop30
280
     1
102
RTVSPost2010PropOp30
 70
     1
102
RTVSPost2010Prop31
280
     0
102
RTVSPost2010PropOp31
 70
     1
102
RTVSPost2010Prop32
280
     0
102
RTVSPost2010PropOp32
 70
     1
102
RTVSPost2010Prop33
280
     0
102
RTVSPost2010PropOp33
 70
     1
102
RTVSPost2010Prop34
280
     0
102
RTVSPost2010PropOp34
 70
     1
102
RTVSPost2010Prop35
280
     0
102
RTVSPost2010PropOp35
 70
     1
102
RTVSPost2010Prop36
280
     0
102
RTVSPost2010PropOp36
 70
     1
102
RTVSPost2010Prop37
 90
       50
102
RTVSPost2010PropOp37
 70
     1
102
RTVSPost2010Prop38
140
0.0
102
RTVSPost2010PropOp38
 70
     1
102
RTVSPost2010Prop39
140
1.0
102
RTVSPost2010PropOp39
 70
     1
102
RTVSPost2010Prop40
 90
        0
102
RTVSPost2010PropOp40
 70
     1
102
RTVSPost2010Prop41ColorIndex
 90
       18
102
RTVSPost2010Prop41ColorRGB
 90
        0
102
RTVSPost2010PropOp41
 70
     1
102
RTVSPost2010Prop42
 90
       50
102
RTVSPost2010PropOp42
 70
     1
102
RTVSPost2010Prop43
 90
        3
102
RTVSPost2010PropOp43
 70
     1
102
RTVSPost2010Prop44ColorIndex
 90
        5
102
RTVSPost2010Prop44ColorRGB
 90
      255
102
RTVSPost2010PropOp44
 70
     1
102
RTVSPost2010Prop45
280
     0
102
RTVSPost2010PropOp45
 70
     1
102
RTVSPost2010Prop46
 90
       50
102
RTVSPost2010PropOp46
 70
     1
102
RTVSPost2010Prop47
 90
       50
102
RTVSPost2010PropOp47
 70
     1
102
RTVSPost2010Prop48
 90
       50
102
RTVSPost2010PropOp48
 70
     1
102
RTVSPost2010Prop49
280
     0
102
RTVSPost2010PropOp49
 70
     1
102
RTVSPost2010Prop50
 90
       50
102
RTVSPost2010PropOp50
 70
     1
102
RTVSPost2010Prop51ColorIndex
 90
      256
102
RTVSPost2010Prop51ColorRGB
 90
-16777216
102
RTVSPost2010PropOp51
 70
     0
102
RTVSPost2010Prop52
140
1.0
102
RTVSPost2010PropOp52
 70
     0
102
RTVSPost2010Prop53
 90
        2
102
RTVSPost2010PropOp53
 70
     1
102
RTVSPost2010Prop54
  1
strokes_ogs.tif
102
RTVSPost2010PropOp54
 70
     1
102
RTVSPost2010Prop55
280
     0
102
RTVSPost2010PropOp55
 70
     1
102
RTVSPost2010Prop56
140
1.0
102
RTVSPost2010PropOp56
 70
     1
102
RTVSPost2010Prop57
140
1.0
102
RTVSPost2010PropOp57
 70
     1
102
RTVSPropertyOp0
 70
     1
102
RTVSPropertyOp1
 70
     1
102
RTVSPropertyOp2
 70
     1
102
RTVSPropertyOp3
 70
     1
102
RTVSPropertyOp4
 70
     1
102
RTVSPropertyOp5
 70
     1
102
RTVSPropertyOp6
 70
     1
102
RTVSPropertyOp7
 70
     1
102
RTVSPropertyOp8
 70
     1
102
RTVSPropertyOp9
 70
     1
102
RTVSPropertyOp10
 70
     1
102
RTVSPropertyOp11
 70
     1
102
RTVSPropertyOp12
 70
     1
102
RTVSPropertyOp13
 70
     1
102
RTVSPropertyOp14
 70
     1
102
RTVSPropertyOp15
 70
     1
102
RTVSPropertyOp16
 70
     1
102
RTVSPropertyOp17
 70
     1
102
RTVSPropertyOp18
 70
     1
102
RTVSPropertyOp19
 70
     1
102
RTVSPropertyOp20
 70
     1
102
RTVSPropertyOp21
 70
     1
102
RTVSPropertyOp22
 70
     1
102
RTVSPropertyOp23
 70
     1
102
RTVSPropertyOp24
 70
     1
102
RTVSPropertyOp25
 70
     1
102
RTVSPropertyOp26
 70
     1
102
RTVSPropertyOp27
 70
     1
102
RTVSPropertyOp28
 70
     1
102
RTVSPropertyOp29
 70
     1
102
RTVSPropertyOp30
 70
     1
102
RTVSPropertyOp31
 70
     1
102
RTVSPropertyOp32
 70
     1
102
RTVSPropertyOp33
 70
     1
102
RTVSPropertyOp34
 70
     1
102
RTVSPropertyOp35
 70
     1
102
RTVSPropertyOp36
 70
     1
102
RTVSPropertyOp37
 70
     1
102
RTVSPropertyOp38
 70
     1
102
RTVSPropertyOp39
 70
     1
102
RTVSPropertyOp40
 70
     1
102
RTVSPropertyOp41
 70
     1
102
RTVSPropertyOp42
 70
     1
102
RTVSPropertyOp43
 70
     1
102
RTVSPropertyOp44
 70
     1
102
RTVSPropertyOp45
 70
     1
102
RTVSPropertyOp46
 70
     1
102
RTVSPropertyOp47
 70
     1
102
RTVSPropertyOp48
 70
     1
102
RTVSPropertyOp49
 70
     1
102
RTVSPropertyOp50
 70
     1
102
RTVSPropertyOp51
 70
     0
102
RTVSPropertyOp52
 70
     0
102
RTVSPropertyOp53
 70
     1
102
RTVSPropertyOp54
 70
     1
102
RTVSPropertyOp55
 70
     1
102
RTVSPropertyOp56
 70
     1
102
RTVSPropertyOp57
 70
     1
102
RTVSPropertyOp58
 70
     1
102
RTVSPropertyOp59
 70
     1
102
RTVSPropertyOp60
 70
     1
102
RTVSPropertyOp61
 70
     1
102
RTVSPropertyOp62
 70
     1
  0
XRECORD
  5
40B
102
{ACAD_REACTORS
330
40A
102
}
330
40A
100
AcDbXrecord
280
     1
102
RTVSPost2010Prop28
280
     0
102
RTVSPost2010PropOp28
 70
     1
102
RTVSPost2010Prop29
280
     1
102
RTVSPost2010PropOp29
 70
     1
102
RTVSPost2010Prop30
280
     1
102
RTVSPost2010PropOp30
 70
     1
102
RTVSPost2010Prop31
280
     0
102
RTVSPost2010PropOp31
 70
     1
102
RTVSPost2010Prop32
280
     0
102
RTVSPost2010PropOp32
 70
     1
102
RTVSPost2010Prop33
280
     0
102
RTVSPost2010PropOp33
 70
     1
102
RTVSPost2010Prop34
280
     0
102
RTVSPost2010PropOp34
 70
     1
102
RTVSPost2010Prop35
280
     0
102
RTVSPost2010PropOp35
 70
     1
102
RTVSPost2010Prop36
280
     0
102
RTVSPost2010PropOp36
 70
     1
102
RTVSPost2010Prop37
 90
       50
102
RTVSPost2010PropOp37
 70
     1
102
RTVSPost2010Prop38
140
0.0
102
RTVSPost2010PropOp38
 70
     1
102
RTVSPost2010Prop39
140
1.0
102
RTVSPost2010PropOp39
 70
     1
102
RTVSPost2010Prop40
 90
        0
102
RTVSPost2010PropOp40
 70
     1
102
RTVSPost2010Prop41ColorIndex
 90
       18
102
RTVSPost2010Prop41ColorRGB
 90
        0
102
RTVSPost2010PropOp41
 70
     1
102
RTVSPost2010Prop42
 90
       50
102
RTVSPost2010PropOp42
 70
     1
102
RTVSPost2010Prop43
 90
        3
102
RTVSPost2010PropOp43
 70
     1
102
RTVSPost2010Prop44ColorIndex
 90
        5
102
RTVSPost2010Prop44ColorRGB
 90
      255
102
RTVSPost2010PropOp44
 70
     1
102
RTVSPost2010Prop45
280
     0
102
RTVSPost2010PropOp45
 70
     1
102
RTVSPost2010Prop46
 90
       50
102
RTVSPost2010PropOp46
 70
     1
102
RTVSPost2010Prop47
 90
       50
102
RTVSPost2010PropOp47
 70
     1
102
RTVSPost2010Prop48
 90
       50
102
RTVSPost2010PropOp48
 70
     1
102
RTVSPost2010Prop49
280
     0
102
RTVSPost2010PropOp49
 70
     1
102
RTVSPost2010Prop50
 90
       50
102
RTVSPost2010PropOp50
 70
     1
102
RTVSPost2010Prop51ColorIndex
 90
      256
102
RTVSPost2010Prop51ColorRGB
 90
-16777216
102
RTVSPost2010PropOp51
 70
     0
102
RTVSPost2010Prop52
140
1.0
102
RTVSPost2010PropOp52
 70
     0
102
RTVSPost2010Prop53
 90
        2
102
RTVSPost2010PropOp53
 70
     1
102
RTVSPost2010Prop54
  1
strokes_ogs.tif
102
RTVSPost2010PropOp54
 70
     1
102
RTVSPost2010Prop55
280
     0
102
RTVSPost2010PropOp55
 70
     1
102
RTVSPost2010Prop56
140
1.0
102
RTVSPost2010PropOp56
 70
     1
102
RTVSPost2010Prop57
140
1.0
102
RTVSPost2010PropOp57
 70
     1
102
RTVSPropertyOp0
 70
     1
102
RTVSPropertyOp1
 70
     1
102
RTVSPropertyOp2
 70
     1
102
RTVSPropertyOp3
 70
     1
102
RTVSPropertyOp4
 70
     1
102
RTVSPropertyOp5
 70
     1
102
RTVSPropertyOp6
 70
     1
102
RTVSPropertyOp7
 70
     1
102
RTVSPropertyOp8
 70
     1
102
RTVSPropertyOp9
 70
     1
102
RTVSPropertyOp10
 70
     1
102
RTVSPropertyOp11
 70
     1
102
RTVSPropertyOp12
 70
     1
102
RTVSPropertyOp13
 70
     1
102
RTVSPropertyOp14
 70
     1
102
RTVSPropertyOp15
 70
     1
102
RTVSPropertyOp16
 70
     1
102
RTVSPropertyOp17
 70
     1
102
RTVSPropertyOp18
 70
     1
102
RTVSPropertyOp19
 70
     1
102
RTVSPropertyOp20
 70
     1
102
RTVSPropertyOp21
 70
     1
102
RTVSPropertyOp22
 70
     1
102
RTVSPropertyOp23
 70
     1
102
RTVSPropertyOp24
 70
     1
102
RTVSPropertyOp25
 70
     1
102
RTVSPropertyOp26
 70
     1
102
RTVSPropertyOp27
 70
     1
102
RTVSPropertyOp28
 70
     1
102
RTVSPropertyOp29
 70
     1
102
RTVSPropertyOp30
 70
     1
102
RTVSPropertyOp31
 70
     1
102
RTVSPropertyOp32
 70
     1
102
RTVSPropertyOp33
 70
     1
102
RTVSPropertyOp34
 70
     1
102
RTVSPropertyOp35
 70
     1
102
RTVSPropertyOp36
 70
     1
102
RTVSPropertyOp37
 70
     1
102
RTVSPropertyOp38
 70
     1
102
RTVSPropertyOp39
 70
     1
102
RTVSPropertyOp40
 70
     1
102
RTVSPropertyOp41
 70
     1
102
RTVSPropertyOp42
 70
     1
102
RTVSPropertyOp43
 70
     1
102
RTVSPropertyOp44
 70
     1
102
RTVSPropertyOp45
 70
     1
102
RTVSPropertyOp46
 70
     1
102
RTVSPropertyOp47
 70
     1
102
RTVSPropertyOp48
 70
     1
102
RTVSPropertyOp49
 70
     1
102
RTVSPropertyOp50
 70
     1
102
RTVSPropertyOp51
 70
     0
102
RTVSPropertyOp52
 70
     0
102
RTVSPropertyOp53
 70
     1
102
RTVSPropertyOp54
 70
     1
102
RTVSPropertyOp55
 70
     1
102
RTVSPropertyOp56
 70
     1
102
RTVSPropertyOp57
 70
     1
102
RTVSPropertyOp58
 70
     1
102
RTVSPropertyOp59
 70
     1
102
RTVSPropertyOp60
 70
     1
102
RTVSPropertyOp61
 70
     1
102
RTVSPropertyOp62
 70
     1
  0
XRECORD
  5
413
102
{ACAD_REACTORS
330
412
102
}
330
412
100
AcDbXrecord
280
     1
102
RTVSPost2010Prop28
280
     0
102
RTVSPost2010PropOp28
 70
     1
102
RTVSPost2010Prop29
280
     1
102
RTVSPost2010PropOp29
 70
     1
102
RTVSPost2010Prop30
280
     1
102
RTVSPost2010PropOp30
 70
     1
102
RTVSPost2010Prop31
280
     0
102
RTVSPost2010PropOp31
 70
     1
102
RTVSPost2010Prop32
280
     0
102
RTVSPost2010PropOp32
 70
     1
102
RTVSPost2010Prop33
280
     0
102
RTVSPost2010PropOp33
 70
     1
102
RTVSPost2010Prop34
280
     0
102
RTVSPost2010PropOp34
 70
     1
102
RTVSPost2010Prop35
280
     0
102
RTVSPost2010PropOp35
 70
     1
102
RTVSPost2010Prop36
280
     0
102
RTVSPost2010PropOp36
 70
     1
102
RTVSPost2010Prop37
 90
       50
102
RTVSPost2010PropOp37
 70
     1
102
RTVSPost2010Prop38
140
0.0
102
RTVSPost2010PropOp38
 70
     1
102
RTVSPost2010Prop39
140
1.0
102
RTVSPost2010PropOp39
 70
     1
102
RTVSPost2010Prop40
 90
        0
102
RTVSPost2010PropOp40
 70
     1
102
RTVSPost2010Prop41ColorIndex
 90
       18
102
RTVSPost2010Prop41ColorRGB
 90
        0
102
RTVSPost2010PropOp41
 70
     1
102
RTVSPost2010Prop42
 90
       50
102
RTVSPost2010PropOp42
 70
     1
102
RTVSPost2010Prop43
 90
        3
102
RTVSPost2010PropOp43
 70
     1
102
RTVSPost2010Prop44ColorIndex
 90
        5
102
RTVSPost2010Prop44ColorRGB
 90
      255
102
RTVSPost2010PropOp44
 70
     1
102
RTVSPost2010Prop45
280
     0
102
RTVSPost2010PropOp45
 70
     1
102
RTVSPost2010Prop46
 90
       50
102
RTVSPost2010PropOp46
 70
     1
102
RTVSPost2010Prop47
 90
       50
102
RTVSPost2010PropOp47
 70
     1
102
RTVSPost2010Prop48
 90
       50
102
RTVSPost2010PropOp48
 70
     1
102
RTVSPost2010Prop49
280
     0
102
RTVSPost2010PropOp49
 70
     1
102
RTVSPost2010Prop50
 90
       50
102
RTVSPost2010PropOp50
 70
     1
102
RTVSPost2010Prop51ColorIndex
 90
      256
102
RTVSPost2010Prop51ColorRGB
 90
-16777216
102
RTVSPost2010PropOp51
 70
     0
102
RTVSPost2010Prop52
140
1.0
102
RTVSPost2010PropOp52
 70
     0
102
RTVSPost2010Prop53
 90
        2
102
RTVSPost2010PropOp53
 70
     1
102
RTVSPost2010Prop54
  1
strokes_ogs.tif
102
RTVSPost2010PropOp54
 70
     1
102
RTVSPost2010Prop55
280
     0
102
RTVSPost2010PropOp55
 70
     1
102
RTVSPost2010Prop56
140
1.0
102
RTVSPost2010PropOp56
 70
     1
102
RTVSPost2010Prop57
140
1.0
102
RTVSPost2010PropOp57
 70
     1
102
RTVSPropertyOp0
 70
     1
102
RTVSPropertyOp1
 70
     1
102
RTVSPropertyOp2
 70
     1
102
RTVSPropertyOp3
 70
     1
102
RTVSPropertyOp4
 70
     1
102
RTVSPropertyOp5
 70
     1
102
RTVSPropertyOp6
 70
     1
102
RTVSPropertyOp7
 70
     1
102
RTVSPropertyOp8
 70
     1
102
RTVSPropertyOp9
 70
     1
102
RTVSPropertyOp10
 70
     1
102
RTVSPropertyOp11
 70
     1
102
RTVSPropertyOp12
 70
     1
102
RTVSPropertyOp13
 70
     1
102
RTVSPropertyOp14
 70
     1
102
RTVSPropertyOp15
 70
     1
102
RTVSPropertyOp16
 70
     1
102
RTVSPropertyOp17
 70
     1
102
RTVSPropertyOp18
 70
     1
102
RTVSPropertyOp19
 70
     1
102
RTVSPropertyOp20
 70
     1
102
RTVSPropertyOp21
 70
     1
102
RTVSPropertyOp22
 70
     1
102
RTVSPropertyOp23
 70
     1
102
RTVSPropertyOp24
 70
     1
102
RTVSPropertyOp25
 70
     1
102
RTVSPropertyOp26
 70
     1
102
RTVSPropertyOp27
 70
     1
102
RTVSPropertyOp28
 70
     1
102
RTVSPropertyOp29
 70
     1
102
RTVSPropertyOp30
 70
     1
102
RTVSPropertyOp31
 70
     1
102
RTVSPropertyOp32
 70
     1
102
RTVSPropertyOp33
 70
     1
102
RTVSPropertyOp34
 70
     1
102
RTVSPropertyOp35
 70
     1
102
RTVSPropertyOp36
 70
     1
102
RTVSPropertyOp37
 70
     1
102
RTVSPropertyOp38
 70
     1
102
RTVSPropertyOp39
 70
     1
102
RTVSPropertyOp40
 70
     1
102
RTVSPropertyOp41
 70
     1
102
RTVSPropertyOp42
 70
     1
102
RTVSPropertyOp43
 70
     1
102
RTVSPropertyOp44
 70
     1
102
RTVSPropertyOp45
 70
     1
102
RTVSPropertyOp46
 70
     1
102
RTVSPropertyOp47
 70
     1
102
RTVSPropertyOp48
 70
     1
102
RTVSPropertyOp49
 70
     1
102
RTVSPropertyOp50
 70
     1
102
RTVSPropertyOp51
 70
     0
102
RTVSPropertyOp52
 70
     0
102
RTVSPropertyOp53
 70
     1
102
RTVSPropertyOp54
 70
     1
102
RTVSPropertyOp55
 70
     1
102
RTVSPropertyOp56
 70
     1
102
RTVSPropertyOp57
 70
     1
102
RTVSPropertyOp58
 70
     1
102
RTVSPropertyOp59
 70
     1
102
RTVSPropertyOp60
 70
     1
102
RTVSPropertyOp61
 70
     1
102
RTVSPropertyOp62
 70
     1
  0
XRECORD
  5
407
102
{ACAD_REACTORS
330
406
102
}
330
406
100
AcDbXrecord
280
     1
102
RTVSPost2010Prop28
280
     0
102
RTVSPost2010PropOp28
 70
     1
102
RTVSPost2010Prop29
280
     1
102
RTVSPost2010PropOp29
 70
     1
102
RTVSPost2010Prop30
280
     1
102
RTVSPost2010PropOp30
 70
     1
102
RTVSPost2010Prop31
280
     0
102
RTVSPost2010PropOp31
 70
     1
102
RTVSPost2010Prop32
280
     0
102
RTVSPost2010PropOp32
 70
     1
102
RTVSPost2010Prop33
280
     0
102
RTVSPost2010PropOp33
 70
     1
102
RTVSPost2010Prop34
280
     0
102
RTVSPost2010PropOp34
 70
     1
102
RTVSPost2010Prop35
280
     0
102
RTVSPost2010PropOp35
 70
     1
102
RTVSPost2010Prop36
280
     0
102
RTVSPost2010PropOp36
 70
     1
102
RTVSPost2010Prop37
 90
       50
102
RTVSPost2010PropOp37
 70
     1
102
RTVSPost2010Prop38
140
0.0
102
RTVSPost2010PropOp38
 70
     1
102
RTVSPost2010Prop39
140
1.0
102
RTVSPost2010PropOp39
 70
     1
102
RTVSPost2010Prop40
 90
        0
102
RTVSPost2010PropOp40
 70
     1
102
RTVSPost2010Prop41ColorIndex
 90
       18
102
RTVSPost2010Prop41ColorRGB
 90
        0
102
RTVSPost2010PropOp41
 70
     1
102
RTVSPost2010Prop42
 90
       50
102
RTVSPost2010PropOp42
 70
     1
102
RTVSPost2010Prop43
 90
        3
102
RTVSPost2010PropOp43
 70
     1
102
RTVSPost2010Prop44ColorIndex
 90
        5
102
RTVSPost2010Prop44ColorRGB
 90
      255
102
RTVSPost2010PropOp44
 70
     1
102
RTVSPost2010Prop45
280
     0
102
RTVSPost2010PropOp45
 70
     1
102
RTVSPost2010Prop46
 90
       50
102
RTVSPost2010PropOp46
 70
     1
102
RTVSPost2010Prop47
 90
       50
102
RTVSPost2010PropOp47
 70
     1
102
RTVSPost2010Prop48
 90
       50
102
RTVSPost2010PropOp48
 70
     1
102
RTVSPost2010Prop49
280
     0
102
RTVSPost2010PropOp49
 70
     1
102
RTVSPost2010Prop50
 90
       50
102
RTVSPost2010PropOp50
 70
     1
102
RTVSPost2010Prop51ColorIndex
 90
      256
102
RTVSPost2010Prop51ColorRGB
 90
-16777216
102
RTVSPost2010PropOp51
 70
     0
102
RTVSPost2010Prop52
140
1.0
102
RTVSPost2010PropOp52
 70
     0
102
RTVSPost2010Prop53
 90
        2
102
RTVSPost2010PropOp53
 70
     1
102
RTVSPost2010Prop54
  1
strokes_ogs.tif
102
RTVSPost2010PropOp54
 70
     1
102
RTVSPost2010Prop55
280
     0
102
RTVSPost2010PropOp55
 70
     1
102
RTVSPost2010Prop56
140
1.0
102
RTVSPost2010PropOp56
 70
     1
102
RTVSPost2010Prop57
140
1.0
102
RTVSPost2010PropOp57
 70
     1
102
RTVSPropertyOp0
 70
     1
102
RTVSPropertyOp1
 70
     1
102
RTVSPropertyOp2
 70
     1
102
RTVSPropertyOp3
 70
     1
102
RTVSPropertyOp4
 70
     1
102
RTVSPropertyOp5
 70
     1
102
RTVSPropertyOp6
 70
     1
102
RTVSPropertyOp7
 70
     1
102
RTVSPropertyOp8
 70
     1
102
RTVSPropertyOp9
 70
     1
102
RTVSPropertyOp10
 70
     1
102
RTVSPropertyOp11
 70
     1
102
RTVSPropertyOp12
 70
     1
102
RTVSPropertyOp13
 70
     1
102
RTVSPropertyOp14
 70
     1
102
RTVSPropertyOp15
 70
     1
102
RTVSPropertyOp16
 70
     1
102
RTVSPropertyOp17
 70
     1
102
RTVSPropertyOp18
 70
     1
102
RTVSPropertyOp19
 70
     1
102
RTVSPropertyOp20
 70
     1
102
RTVSPropertyOp21
 70
     1
102
RTVSPropertyOp22
 70
     1
102
RTVSPropertyOp23
 70
     1
102
RTVSPropertyOp24
 70
     1
102
RTVSPropertyOp25
 70
     1
102
RTVSPropertyOp26
 70
     1
102
RTVSPropertyOp27
 70
     1
102
RTVSPropertyOp28
 70
     1
102
RTVSPropertyOp29
 70
     1
102
RTVSPropertyOp30
 70
     1
102
RTVSPropertyOp31
 70
     1
102
RTVSPropertyOp32
 70
     1
102
RTVSPropertyOp33
 70
     1
102
RTVSPropertyOp34
 70
     1
102
RTVSPropertyOp35
 70
     1
102
RTVSPropertyOp36
 70
     1
102
RTVSPropertyOp37
 70
     1
102
RTVSPropertyOp38
 70
     1
102
RTVSPropertyOp39
 70
     1
102
RTVSPropertyOp40
 70
     1
102
RTVSPropertyOp41
 70
     1
102
RTVSPropertyOp42
 70
     1
102
RTVSPropertyOp43
 70
     1
102
RTVSPropertyOp44
 70
     1
102
RTVSPropertyOp45
 70
     1
102
RTVSPropertyOp46
 70
     1
102
RTVSPropertyOp47
 70
     1
102
RTVSPropertyOp48
 70
     1
102
RTVSPropertyOp49
 70
     1
102
RTVSPropertyOp50
 70
     1
102
RTVSPropertyOp51
 70
     0
102
RTVSPropertyOp52
 70
     0
102
RTVSPropertyOp53
 70
     1
102
RTVSPropertyOp54
 70
     1
102
RTVSPropertyOp55
 70
     1
102
RTVSPropertyOp56
 70
     1
102
RTVSPropertyOp57
 70
     1
102
RTVSPropertyOp58
 70
     1
102
RTVSPropertyOp59
 70
     1
102
RTVSPropertyOp60
 70
     1
102
RTVSPropertyOp61
 70
     1
102
RTVSPropertyOp62
 70
     1
  0
XRECORD
  5
409
102
{ACAD_REACTORS
330
408
102
}
330
408
100
AcDbXrecord
280
     1
102
RTVSPost2010Prop28
280
     0
102
RTVSPost2010PropOp28
 70
     1
102
RTVSPost2010Prop29
280
     1
102
RTVSPost2010PropOp29
 70
     1
102
RTVSPost2010Prop30
280
     1
102
RTVSPost2010PropOp30
 70
     1
102
RTVSPost2010Prop31
280
     0
102
RTVSPost2010PropOp31
 70
     1
102
RTVSPost2010Prop32
280
     0
102
RTVSPost2010PropOp32
 70
     1
102
RTVSPost2010Prop33
280
     0
102
RTVSPost2010PropOp33
 70
     1
102
RTVSPost2010Prop34
280
     0
102
RTVSPost2010PropOp34
 70
     1
102
RTVSPost2010Prop35
280
     0
102
RTVSPost2010PropOp35
 70
     1
102
RTVSPost2010Prop36
280
     0
102
RTVSPost2010PropOp36
 70
     1
102
RTVSPost2010Prop37
 90
       50
102
RTVSPost2010PropOp37
 70
     1
102
RTVSPost2010Prop38
140
0.0
102
RTVSPost2010PropOp38
 70
     1
102
RTVSPost2010Prop39
140
1.0
102
RTVSPost2010PropOp39
 70
     1
102
RTVSPost2010Prop40
 90
        0
102
RTVSPost2010PropOp40
 70
     1
102
RTVSPost2010Prop41ColorIndex
 90
       18
102
RTVSPost2010Prop41ColorRGB
 90
        0
102
RTVSPost2010PropOp41
 70
     1
102
RTVSPost2010Prop42
 90
       50
102
RTVSPost2010PropOp42
 70
     1
102
RTVSPost2010Prop43
 90
        3
102
RTVSPost2010PropOp43
 70
     1
102
RTVSPost2010Prop44ColorIndex
 90
        5
102
RTVSPost2010Prop44ColorRGB
 90
      255
102
RTVSPost2010PropOp44
 70
     1
102
RTVSPost2010Prop45
280
     0
102
RTVSPost2010PropOp45
 70
     1
102
RTVSPost2010Prop46
 90
       50
102
RTVSPost2010PropOp46
 70
     1
102
RTVSPost2010Prop47
 90
       50
102
RTVSPost2010PropOp47
 70
     1
102
RTVSPost2010Prop48
 90
       50
102
RTVSPost2010PropOp48
 70
     1
102
RTVSPost2010Prop49
280
     0
102
RTVSPost2010PropOp49
 70
     1
102
RTVSPost2010Prop50
 90
       50
102
RTVSPost2010PropOp50
 70
     1
102
RTVSPost2010Prop51ColorIndex
 90
      256
102
RTVSPost2010Prop51ColorRGB
 90
-16777216
102
RTVSPost2010PropOp51
 70
     0
102
RTVSPost2010Prop52
140
1.0
102
RTVSPost2010PropOp52
 70
     0
102
RTVSPost2010Prop53
 90
        2
102
RTVSPost2010PropOp53
 70
     1
102
RTVSPost2010Prop54
  1
strokes_ogs.tif
102
RTVSPost2010PropOp54
 70
     1
102
RTVSPost2010Prop55
280
     0
102
RTVSPost2010PropOp55
 70
     1
102
RTVSPost2010Prop56
140
1.0
102
RTVSPost2010PropOp56
 70
     1
102
RTVSPost2010Prop57
140
1.0
102
RTVSPost2010PropOp57
 70
     1
102
RTVSPropertyOp0
 70
     1
102
RTVSPropertyOp1
 70
     1
102
RTVSPropertyOp2
 70
     1
102
RTVSPropertyOp3
 70
     1
102
RTVSPropertyOp4
 70
     1
102
RTVSPropertyOp5
 70
     1
102
RTVSPropertyOp6
 70
     1
102
RTVSPropertyOp7
 70
     1
102
RTVSPropertyOp8
 70
     1
102
RTVSPropertyOp9
 70
     1
102
RTVSPropertyOp10
 70
     1
102
RTVSPropertyOp11
 70
     1
102
RTVSPropertyOp12
 70
     1
102
RTVSPropertyOp13
 70
     1
102
RTVSPropertyOp14
 70
     1
102
RTVSPropertyOp15
 70
     1
102
RTVSPropertyOp16
 70
     1
102
RTVSPropertyOp17
 70
     1
102
RTVSPropertyOp18
 70
     1
102
RTVSPropertyOp19
 70
     1
102
RTVSPropertyOp20
 70
     1
102
RTVSPropertyOp21
 70
     1
102
RTVSPropertyOp22
 70
     1
102
RTVSPropertyOp23
 70
     1
102
RTVSPropertyOp24
 70
     1
102
RTVSPropertyOp25
 70
     1
102
RTVSPropertyOp26
 70
     1
102
RTVSPropertyOp27
 70
     1
102
RTVSPropertyOp28
 70
     1
102
RTVSPropertyOp29
 70
     1
102
RTVSPropertyOp30
 70
     1
102
RTVSPropertyOp31
 70
     1
102
RTVSPropertyOp32
 70
     1
102
RTVSPropertyOp33
 70
     1
102
RTVSPropertyOp34
 70
     1
102
RTVSPropertyOp35
 70
     1
102
RTVSPropertyOp36
 70
     1
102
RTVSPropertyOp37
 70
     1
102
RTVSPropertyOp38
 70
     1
102
RTVSPropertyOp39
 70
     1
102
RTVSPropertyOp40
 70
     1
102
RTVSPropertyOp41
 70
     1
102
RTVSPropertyOp42
 70
     1
102
RTVSPropertyOp43
 70
     1
102
RTVSPropertyOp44
 70
     1
102
RTVSPropertyOp45
 70
     1
102
RTVSPropertyOp46
 70
     1
102
RTVSPropertyOp47
 70
     1
102
RTVSPropertyOp48
 70
     1
102
RTVSPropertyOp49
 70
     1
102
RTVSPropertyOp50
 70
     1
102
RTVSPropertyOp51
 70
     0
102
RTVSPropertyOp52
 70
     0
102
RTVSPropertyOp53
 70
     1
102
RTVSPropertyOp54
 70
     1
102
RTVSPropertyOp55
 70
     1
102
RTVSPropertyOp56
 70
     1
102
RTVSPropertyOp57
 70
     1
102
RTVSPropertyOp58
 70
     1
102
RTVSPropertyOp59
 70
     1
102
RTVSPropertyOp60
 70
     1
102
RTVSPropertyOp61
 70
     1
102
RTVSPropertyOp62
 70
     1
  0
XRECORD
  5
419
102
{ACAD_REACTORS
330
418
102
}
330
418
100
AcDbXrecord
280
     1
102
RTVSPost2010Prop28
280
     0
102
RTVSPost2010PropOp28
 70
     1
102
RTVSPost2010Prop29
280
     1
102
RTVSPost2010PropOp29
 70
     1
102
RTVSPost2010Prop30
280
     1
102
RTVSPost2010PropOp30
 70
     1
102
RTVSPost2010Prop31
280
     0
102
RTVSPost2010PropOp31
 70
     1
102
RTVSPost2010Prop32
280
     0
102
RTVSPost2010PropOp32
 70
     1
102
RTVSPost2010Prop33
280
     0
102
RTVSPost2010PropOp33
 70
     1
102
RTVSPost2010Prop34
280
     0
102
RTVSPost2010PropOp34
 70
     1
102
RTVSPost2010Prop35
280
     0
102
RTVSPost2010PropOp35
 70
     1
102
RTVSPost2010Prop36
280
     0
102
RTVSPost2010PropOp36
 70
     1
102
RTVSPost2010Prop37
 90
       50
102
RTVSPost2010PropOp37
 70
     1
102
RTVSPost2010Prop38
140
0.0
102
RTVSPost2010PropOp38
 70
     1
102
RTVSPost2010Prop39
140
1.0
102
RTVSPost2010PropOp39
 70
     1
102
RTVSPost2010Prop40
 90
        0
102
RTVSPost2010PropOp40
 70
     1
102
RTVSPost2010Prop41ColorIndex
 90
       18
102
RTVSPost2010Prop41ColorRGB
 90
        0
102
RTVSPost2010PropOp41
 70
     1
102
RTVSPost2010Prop42
 90
       50
102
RTVSPost2010PropOp42
 70
     1
102
RTVSPost2010Prop43
 90
        3
102
RTVSPost2010PropOp43
 70
     1
102
RTVSPost2010Prop44ColorIndex
 90
        5
102
RTVSPost2010Prop44ColorRGB
 90
      255
102
RTVSPost2010PropOp44
 70
     1
102
RTVSPost2010Prop45
280
     0
102
RTVSPost2010PropOp45
 70
     1
102
RTVSPost2010Prop46
 90
       50
102
RTVSPost2010PropOp46
 70
     1
102
RTVSPost2010Prop47
 90
       50
102
RTVSPost2010PropOp47
 70
     1
102
RTVSPost2010Prop48
 90
       50
102
RTVSPost2010PropOp48
 70
     1
102
RTVSPost2010Prop49
280
     0
102
RTVSPost2010PropOp49
 70
     1
102
RTVSPost2010Prop50
 90
       50
102
RTVSPost2010PropOp50
 70
     1
102
RTVSPost2010Prop51ColorIndex
 90
      256
102
RTVSPost2010Prop51ColorRGB
 90
-16777216
102
RTVSPost2010PropOp51
 70
     0
102
RTVSPost2010Prop52
140
1.0
102
RTVSPost2010PropOp52
 70
     0
102
RTVSPost2010Prop53
 90
        2
102
RTVSPost2010PropOp53
 70
     1
102
RTVSPost2010Prop54
  1
strokes_ogs.tif
102
RTVSPost2010PropOp54
 70
     1
102
RTVSPost2010Prop55
280
     0
102
RTVSPost2010PropOp55
 70
     1
102
RTVSPost2010Prop56
140
1.0
102
RTVSPost2010PropOp56
 70
     1
102
RTVSPost2010Prop57
140
1.0
102
RTVSPost2010PropOp57
 70
     1
102
RTVSPropertyOp0
 70
     0
102
RTVSPropertyOp1
 70
     0
102
RTVSPropertyOp2
 70
     0
102
RTVSPropertyOp3
 70
     0
102
RTVSPropertyOp4
 70
     0
102
RTVSPropertyOp5
 70
     0
102
RTVSPropertyOp6
 70
     0
102
RTVSPropertyOp7
 70
     0
102
RTVSPropertyOp8
 70
     0
102
RTVSPropertyOp9
 70
     0
102
RTVSPropertyOp10
 70
     0
102
RTVSPropertyOp11
 70
     0
102
RTVSPropertyOp12
 70
     0
102
RTVSPropertyOp13
 70
     0
102
RTVSPropertyOp14
 70
     0
102
RTVSPropertyOp15
 70
     0
102
RTVSPropertyOp16
 70
     0
102
RTVSPropertyOp17
 70
     0
102
RTVSPropertyOp18
 70
     0
102
RTVSPropertyOp19
 70
     0
102
RTVSPropertyOp20
 70
     0
102
RTVSPropertyOp21
 70
     0
102
RTVSPropertyOp22
 70
     0
102
RTVSPropertyOp23
 70
     0
102
RTVSPropertyOp24
 70
     0
102
RTVSPropertyOp25
 70
     0
102
RTVSPropertyOp26
 70
     0
102
RTVSPropertyOp27
 70
     0
102
RTVSPropertyOp28
 70
     1
102
RTVSPropertyOp29
 70
     1
102
RTVSPropertyOp30
 70
     1
102
RTVSPropertyOp31
 70
     1
102
RTVSPropertyOp32
 70
     1
102
RTVSPropertyOp33
 70
     1
102
RTVSPropertyOp34
 70
     1
102
RTVSPropertyOp35
 70
     1
102
RTVSPropertyOp36
 70
     1
102
RTVSPropertyOp37
 70
     1
102
RTVSPropertyOp38
 70
     1
102
RTVSPropertyOp39
 70
     1
102
RTVSPropertyOp40
 70
     1
102
RTVSPropertyOp41
 70
     1
102
RTVSPropertyOp42
 70
     1
102
RTVSPropertyOp43
 70
     1
102
RTVSPropertyOp44
 70
     1
102
RTVSPropertyOp45
 70
     1
102
RTVSPropertyOp46
 70
     1
102
RTVSPropertyOp47
 70
     1
102
RTVSPropertyOp48
 70
     1
102
RTVSPropertyOp49
 70
     1
102
RTVSPropertyOp50
 70
     1
102
RTVSPropertyOp51
 70
     0
102
RTVSPropertyOp52
 70
     0
102
RTVSPropertyOp53
 70
     1
102
RTVSPropertyOp54
 70
     1
102
RTVSPropertyOp55
 70
     1
102
RTVSPropertyOp56
 70
     1
102
RTVSPropertyOp57
 70
     1
102
RTVSPropertyOp58
 70
     1
102
RTVSPropertyOp59
 70
     1
102
RTVSPropertyOp60
 70
     1
102
RTVSPropertyOp61
 70
     1
102
RTVSPropertyOp62
 70
     1
  0
XRECORD
  5
411
102
{ACAD_REACTORS
330
410
102
}
330
410
100
AcDbXrecord
280
     1
102
RTVSPost2010Prop28
280
     0
102
RTVSPost2010PropOp28
 70
     1
102
RTVSPost2010Prop29
280
     1
102
RTVSPost2010PropOp29
 70
     1
102
RTVSPost2010Prop30
280
     1
102
RTVSPost2010PropOp30
 70
     1
102
RTVSPost2010Prop31
280
     0
102
RTVSPost2010PropOp31
 70
     1
102
RTVSPost2010Prop32
280
     0
102
RTVSPost2010PropOp32
 70
     1
102
RTVSPost2010Prop33
280
     0
102
RTVSPost2010PropOp33
 70
     1
102
RTVSPost2010Prop34
280
     0
102
RTVSPost2010PropOp34
 70
     1
102
RTVSPost2010Prop35
280
     0
102
RTVSPost2010PropOp35
 70
     1
102
RTVSPost2010Prop36
280
     0
102
RTVSPost2010PropOp36
 70
     1
102
RTVSPost2010Prop37
 90
       50
102
RTVSPost2010PropOp37
 70
     1
102
RTVSPost2010Prop38
140
0.0
102
RTVSPost2010PropOp38
 70
     1
102
RTVSPost2010Prop39
140
1.0
102
RTVSPost2010PropOp39
 70
     1
102
RTVSPost2010Prop40
 90
        0
102
RTVSPost2010PropOp40
 70
     1
102
RTVSPost2010Prop41ColorIndex
 90
       18
102
RTVSPost2010Prop41ColorRGB
 90
        0
102
RTVSPost2010PropOp41
 70
     1
102
RTVSPost2010Prop42
 90
       50
102
RTVSPost2010PropOp42
 70
     1
102
RTVSPost2010Prop43
 90
        3
102
RTVSPost2010PropOp43
 70
     1
102
RTVSPost2010Prop44ColorIndex
 90
        5
102
RTVSPost2010Prop44ColorRGB
 90
      255
102
RTVSPost2010PropOp44
 70
     1
102
RTVSPost2010Prop45
280
     0
102
RTVSPost2010PropOp45
 70
     1
102
RTVSPost2010Prop46
 90
       50
102
RTVSPost2010PropOp46
 70
     1
102
RTVSPost2010Prop47
 90
       50
102
RTVSPost2010PropOp47
 70
     1
102
RTVSPost2010Prop48
 90
       50
102
RTVSPost2010PropOp48
 70
     1
102
RTVSPost2010Prop49
280
     0
102
RTVSPost2010PropOp49
 70
     1
102
RTVSPost2010Prop50
 90
       50
102
RTVSPost2010PropOp50
 70
     1
102
RTVSPost2010Prop51ColorIndex
 90
      256
102
RTVSPost2010Prop51ColorRGB
 90
-16777216
102
RTVSPost2010PropOp51
 70
     0
102
RTVSPost2010Prop52
140
1.0
102
RTVSPost2010PropOp52
 70
     0
102
RTVSPost2010Prop53
 90
        2
102
RTVSPost2010PropOp53
 70
     1
102
RTVSPost2010Prop54
  1
strokes_ogs.tif
102
RTVSPost2010PropOp54
 70
     1
102
RTVSPost2010Prop55
280
     0
102
RTVSPost2010PropOp55
 70
     1
102
RTVSPost2010Prop56
140
1.0
102
RTVSPost2010PropOp56
 70
     1
102
RTVSPost2010Prop57
140
1.0
102
RTVSPost2010PropOp57
 70
     1
102
RTVSPropertyOp0
 70
     1
102
RTVSPropertyOp1
 70
     1
102
RTVSPropertyOp2
 70
     1
102
RTVSPropertyOp3
 70
     1
102
RTVSPropertyOp4
 70
     1
102
RTVSPropertyOp5
 70
     1
102
RTVSPropertyOp6
 70
     1
102
RTVSPropertyOp7
 70
     1
102
RTVSPropertyOp8
 70
     1
102
RTVSPropertyOp9
 70
     1
102
RTVSPropertyOp10
 70
     1
102
RTVSPropertyOp11
 70
     1
102
RTVSPropertyOp12
 70
     1
102
RTVSPropertyOp13
 70
     1
102
RTVSPropertyOp14
 70
     1
102
RTVSPropertyOp15
 70
     1
102
RTVSPropertyOp16
 70
     1
102
RTVSPropertyOp17
 70
     1
102
RTVSPropertyOp18
 70
     1
102
RTVSPropertyOp19
 70
     1
102
RTVSPropertyOp20
 70
     1
102
RTVSPropertyOp21
 70
     1
102
RTVSPropertyOp22
 70
     1
102
RTVSPropertyOp23
 70
     1
102
RTVSPropertyOp24
 70
     1
102
RTVSPropertyOp25
 70
     1
102
RTVSPropertyOp26
 70
     1
102
RTVSPropertyOp27
 70
     1
102
RTVSPropertyOp28
 70
     1
102
RTVSPropertyOp29
 70
     1
102
RTVSPropertyOp30
 70
     1
102
RTVSPropertyOp31
 70
     1
102
RTVSPropertyOp32
 70
     1
102
RTVSPropertyOp33
 70
     1
102
RTVSPropertyOp34
 70
     1
102
RTVSPropertyOp35
 70
     1
102
RTVSPropertyOp36
 70
     1
102
RTVSPropertyOp37
 70
     1
102
RTVSPropertyOp38
 70
     1
102
RTVSPropertyOp39
 70
     1
102
RTVSPropertyOp40
 70
     1
102
RTVSPropertyOp41
 70
     1
102
RTVSPropertyOp42
 70
     1
102
RTVSPropertyOp43
 70
     1
102
RTVSPropertyOp44
 70
     1
102
RTVSPropertyOp45
 70
     1
102
RTVSPropertyOp46
 70
     1
102
RTVSPropertyOp47
 70
     1
102
RTVSPropertyOp48
 70
     1
102
RTVSPropertyOp49
 70
     1
102
RTVSPropertyOp50
 70
     1
102
RTVSPropertyOp51
 70
     0
102
RTVSPropertyOp52
 70
     0
102
RTVSPropertyOp53
 70
     1
102
RTVSPropertyOp54
 70
     1
102
RTVSPropertyOp55
 70
     1
102
RTVSPropertyOp56
 70
     1
102
RTVSPropertyOp57
 70
     1
102
RTVSPropertyOp58
 70
     1
102
RTVSPropertyOp59
 70
     1
102
RTVSPropertyOp60
 70
     1
102
RTVSPropertyOp61
 70
     1
102
RTVSPropertyOp62
 70
     1
  0
XRECORD
  5
3F5
102
{ACAD_REACTORS
330
3F4
102
}
330
3F4
100
AcDbXrecord
280
     1
102
RTVSPost2010Prop28
280
     0
102
RTVSPost2010PropOp28
 70
     1
102
RTVSPost2010Prop29
280
     1
102
RTVSPost2010PropOp29
 70
     1
102
RTVSPost2010Prop30
280
     1
102
RTVSPost2010PropOp30
 70
     1
102
RTVSPost2010Prop31
280
     0
102
RTVSPost2010PropOp31
 70
     1
102
RTVSPost2010Prop32
280
     0
102
RTVSPost2010PropOp32
 70
     1
102
RTVSPost2010Prop33
280
     0
102
RTVSPost2010PropOp33
 70
     1
102
RTVSPost2010Prop34
280
     0
102
RTVSPost2010PropOp34
 70
     1
102
RTVSPost2010Prop35
280
     0
102
RTVSPost2010PropOp35
 70
     1
102
RTVSPost2010Prop36
280
     0
102
RTVSPost2010PropOp36
 70
     1
102
RTVSPost2010Prop37
 90
       50
102
RTVSPost2010PropOp37
 70
     1
102
RTVSPost2010Prop38
140
0.0
102
RTVSPost2010PropOp38
 70
     1
102
RTVSPost2010Prop39
140
1.0
102
RTVSPost2010PropOp39
 70
     1
102
RTVSPost2010Prop40
 90
        0
102
RTVSPost2010PropOp40
 70
     1
102
RTVSPost2010Prop41ColorIndex
 90
       18
102
RTVSPost2010Prop41ColorRGB
 90
        0
102
RTVSPost2010PropOp41
 70
     1
102
RTVSPost2010Prop42
 90
       50
102
RTVSPost2010PropOp42
 70
     1
102
RTVSPost2010Prop43
 90
        3
102
RTVSPost2010PropOp43
 70
     1
102
RTVSPost2010Prop44ColorIndex
 90
        5
102
RTVSPost2010Prop44ColorRGB
 90
      255
102
RTVSPost2010PropOp44
 70
     1
102
RTVSPost2010Prop45
280
     0
102
RTVSPost2010PropOp45
 70
     1
102
RTVSPost2010Prop46
 90
       50
102
RTVSPost2010PropOp46
 70
     1
102
RTVSPost2010Prop47
 90
       50
102
RTVSPost2010PropOp47
 70
     1
102
RTVSPost2010Prop48
 90
       50
102
RTVSPost2010PropOp48
 70
     1
102
RTVSPost2010Prop49
280
     0
102
RTVSPost2010PropOp49
 70
     1
102
RTVSPost2010Prop50
 90
       50
102
RTVSPost2010PropOp50
 70
     1
102
RTVSPost2010Prop51ColorIndex
 90
      256
102
RTVSPost2010Prop51ColorRGB
 90
-16777216
102
RTVSPost2010PropOp51
 70
     0
102
RTVSPost2010Prop52
140
1.0
102
RTVSPost2010PropOp52
 70
     0
102
RTVSPost2010Prop53
 90
        2
102
RTVSPost2010PropOp53
 70
     1
102
RTVSPost2010Prop54
  1
strokes_ogs.tif
102
RTVSPost2010PropOp54
 70
     1
102
RTVSPost2010Prop55
280
     0
102
RTVSPost2010PropOp55
 70
     1
102
RTVSPost2010Prop56
140
1.0
102
RTVSPost2010PropOp56
 70
     1
102
RTVSPost2010Prop57
140
1.0
102
RTVSPost2010PropOp57
 70
     1
102
RTVSPropertyOp0
 70
     1
102
RTVSPropertyOp1
 70
     1
102
RTVSPropertyOp2
 70
     1
102
RTVSPropertyOp3
 70
     1
102
RTVSPropertyOp4
 70
     1
102
RTVSPropertyOp5
 70
     1
102
RTVSPropertyOp6
 70
     1
102
RTVSPropertyOp7
 70
     1
102
RTVSPropertyOp8
 70
     1
102
RTVSPropertyOp9
 70
     1
102
RTVSPropertyOp10
 70
     1
102
RTVSPropertyOp11
 70
     1
102
RTVSPropertyOp12
 70
     1
102
RTVSPropertyOp13
 70
     1
102
RTVSPropertyOp14
 70
     1
102
RTVSPropertyOp15
 70
     1
102
RTVSPropertyOp16
 70
     1
102
RTVSPropertyOp17
 70
     1
102
RTVSPropertyOp18
 70
     1
102
RTVSPropertyOp19
 70
     1
102
RTVSPropertyOp20
 70
     1
102
RTVSPropertyOp21
 70
     1
102
RTVSPropertyOp22
 70
     1
102
RTVSPropertyOp23
 70
     1
102
RTVSPropertyOp24
 70
     1
102
RTVSPropertyOp25
 70
     1
102
RTVSPropertyOp26
 70
     1
102
RTVSPropertyOp27
 70
     1
102
RTVSPropertyOp28
 70
     1
102
RTVSPropertyOp29
 70
     1
102
RTVSPropertyOp30
 70
     1
102
RTVSPropertyOp31
 70
     1
102
RTVSPropertyOp32
 70
     1
102
RTVSPropertyOp33
 70
     1
102
RTVSPropertyOp34
 70
     1
102
RTVSPropertyOp35
 70
     1
102
RTVSPropertyOp36
 70
     1
102
RTVSPropertyOp37
 70
     1
102
RTVSPropertyOp38
 70
     1
102
RTVSPropertyOp39
 70
     1
102
RTVSPropertyOp40
 70
     1
102
RTVSPropertyOp41
 70
     1
102
RTVSPropertyOp42
 70
     1
102
RTVSPropertyOp43
 70
     1
102
RTVSPropertyOp44
 70
     1
102
RTVSPropertyOp45
 70
     1
102
RTVSPropertyOp46
 70
     1
102
RTVSPropertyOp47
 70
     1
102
RTVSPropertyOp48
 70
     1
102
RTVSPropertyOp49
 70
     1
102
RTVSPropertyOp50
 70
     1
102
RTVSPropertyOp51
 70
     0
102
RTVSPropertyOp52
 70
     0
102
RTVSPropertyOp53
 70
     1
102
RTVSPropertyOp54
 70
     1
102
RTVSPropertyOp55
 70
     1
102
RTVSPropertyOp56
 70
     1
102
RTVSPropertyOp57
 70
     1
102
RTVSPropertyOp58
 70
     1
102
RTVSPropertyOp59
 70
     1
102
RTVSPropertyOp60
 70
     1
102
RTVSPropertyOp61
 70
     1
102
RTVSPropertyOp62
 70
     1
  0
XRECORD
  5
3F7
102
{ACAD_REACTORS
330
3F6
102
}
330
3F6
100
AcDbXrecord
280
     1
102
RTVSPost2010Prop28
280
     0
102
RTVSPost2010PropOp28
 70
     1
102
RTVSPost2010Prop29
280
     1
102
RTVSPost2010PropOp29
 70
     1
102
RTVSPost2010Prop30
280
     1
102
RTVSPost2010PropOp30
 70
     1
102
RTVSPost2010Prop31
280
     0
102
RTVSPost2010PropOp31
 70
     1
102
RTVSPost2010Prop32
280
     0
102
RTVSPost2010PropOp32
 70
     1
102
RTVSPost2010Prop33
280
     0
102
RTVSPost2010PropOp33
 70
     1
102
RTVSPost2010Prop34
280
     0
102
RTVSPost2010PropOp34
 70
     1
102
RTVSPost2010Prop35
280
     0
102
RTVSPost2010PropOp35
 70
     1
102
RTVSPost2010Prop36
280
     0
102
RTVSPost2010PropOp36
 70
     1
102
RTVSPost2010Prop37
 90
       50
102
RTVSPost2010PropOp37
 70
     1
102
RTVSPost2010Prop38
140
0.0
102
RTVSPost2010PropOp38
 70
     1
102
RTVSPost2010Prop39
140
1.0
102
RTVSPost2010PropOp39
 70
     1
102
RTVSPost2010Prop40
 90
        0
102
RTVSPost2010PropOp40
 70
     1
102
RTVSPost2010Prop41ColorIndex
 90
       18
102
RTVSPost2010Prop41ColorRGB
 90
        0
102
RTVSPost2010PropOp41
 70
     1
102
RTVSPost2010Prop42
 90
       50
102
RTVSPost2010PropOp42
 70
     1
102
RTVSPost2010Prop43
 90
        3
102
RTVSPost2010PropOp43
 70
     1
102
RTVSPost2010Prop44ColorIndex
 90
        5
102
RTVSPost2010Prop44ColorRGB
 90
      255
102
RTVSPost2010PropOp44
 70
     1
102
RTVSPost2010Prop45
280
     0
102
RTVSPost2010PropOp45
 70
     1
102
RTVSPost2010Prop46
 90
       50
102
RTVSPost2010PropOp46
 70
     1
102
RTVSPost2010Prop47
 90
       50
102
RTVSPost2010PropOp47
 70
     1
102
RTVSPost2010Prop48
 90
       50
102
RTVSPost2010PropOp48
 70
     1
102
RTVSPost2010Prop49
280
     0
102
RTVSPost2010PropOp49
 70
     1
102
RTVSPost2010Prop50
 90
       50
102
RTVSPost2010PropOp50
 70
     1
102
RTVSPost2010Prop51ColorIndex
 90
      256
102
RTVSPost2010Prop51ColorRGB
 90
-16777216
102
RTVSPost2010PropOp51
 70
     0
102
RTVSPost2010Prop52
140
1.0
102
RTVSPost2010PropOp52
 70
     0
102
RTVSPost2010Prop53
 90
        2
102
RTVSPost2010PropOp53
 70
     1
102
RTVSPost2010Prop54
  1
strokes_ogs.tif
102
RTVSPost2010PropOp54
 70
     1
102
RTVSPost2010Prop55
280
     0
102
RTVSPost2010PropOp55
 70
     1
102
RTVSPost2010Prop56
140
1.0
102
RTVSPost2010PropOp56
 70
     1
102
RTVSPost2010Prop57
140
1.0
102
RTVSPost2010PropOp57
 70
     1
102
RTVSPropertyOp0
 70
     1
102
RTVSPropertyOp1
 70
     1
102
RTVSPropertyOp2
 70
     1
102
RTVSPropertyOp3
 70
     1
102
RTVSPropertyOp4
 70
     1
102
RTVSPropertyOp5
 70
     1
102
RTVSPropertyOp6
 70
     1
102
RTVSPropertyOp7
 70
     1
102
RTVSPropertyOp8
 70
     1
102
RTVSPropertyOp9
 70
     1
102
RTVSPropertyOp10
 70
     1
102
RTVSPropertyOp11
 70
     1
102
RTVSPropertyOp12
 70
     1
102
RTVSPropertyOp13
 70
     1
102
RTVSPropertyOp14
 70
     1
102
RTVSPropertyOp15
 70
     1
102
RTVSPropertyOp16
 70
     1
102
RTVSPropertyOp17
 70
     1
102
RTVSPropertyOp18
 70
     1
102
RTVSPropertyOp19
 70
     1
102
RTVSPropertyOp20
 70
     1
102
RTVSPropertyOp21
 70
     1
102
RTVSPropertyOp22
 70
     1
102
RTVSPropertyOp23
 70
     1
102
RTVSPropertyOp24
 70
     1
102
RTVSPropertyOp25
 70
     1
102
RTVSPropertyOp26
 70
     1
102
RTVSPropertyOp27
 70
     1
102
RTVSPropertyOp28
 70
     1
102
RTVSPropertyOp29
 70
     1
102
RTVSPropertyOp30
 70
     1
102
RTVSPropertyOp31
 70
     1
102
RTVSPropertyOp32
 70
     1
102
RTVSPropertyOp33
 70
     1
102
RTVSPropertyOp34
 70
     1
102
RTVSPropertyOp35
 70
     1
102
RTVSPropertyOp36
 70
     1
102
RTVSPropertyOp37
 70
     1
102
RTVSPropertyOp38
 70
     1
102
RTVSPropertyOp39
 70
     1
102
RTVSPropertyOp40
 70
     1
102
RTVSPropertyOp41
 70
     1
102
RTVSPropertyOp42
 70
     1
102
RTVSPropertyOp43
 70
     1
102
RTVSPropertyOp44
 70
     1
102
RTVSPropertyOp45
 70
     1
102
RTVSPropertyOp46
 70
     1
102
RTVSPropertyOp47
 70
     1
102
RTVSPropertyOp48
 70
     1
102
RTVSPropertyOp49
 70
     1
102
RTVSPropertyOp50
 70
     1
102
RTVSPropertyOp51
 70
     0
102
RTVSPropertyOp52
 70
     0
102
RTVSPropertyOp53
 70
     1
102
RTVSPropertyOp54
 70
     1
102
RTVSPropertyOp55
 70
     1
102
RTVSPropertyOp56
 70
     1
102
RTVSPropertyOp57
 70
     1
102
RTVSPropertyOp58
 70
     1
102
RTVSPropertyOp59
 70
     1
102
RTVSPropertyOp60
 70
     1
102
RTVSPropertyOp61
 70
     1
102
RTVSPropertyOp62
 70
     1
  0
XRECORD
  5
3F9
102
{ACAD_REACTORS
330
3F8
102
}
330
3F8
100
AcDbXrecord
280
     1
102
RTVSPost2010Prop28
280
     0
102
RTVSPost2010PropOp28
 70
     1
102
RTVSPost2010Prop29
280
     1
102
RTVSPost2010PropOp29
 70
     1
102
RTVSPost2010Prop30
280
     1
102
RTVSPost2010PropOp30
 70
     1
102
RTVSPost2010Prop31
280
     0
102
RTVSPost2010PropOp31
 70
     1
102
RTVSPost2010Prop32
280
     0
102
RTVSPost2010PropOp32
 70
     1
102
RTVSPost2010Prop33
280
     0
102
RTVSPost2010PropOp33
 70
     1
102
RTVSPost2010Prop34
280
     0
102
RTVSPost2010PropOp34
 70
     1
102
RTVSPost2010Prop35
280
     0
102
RTVSPost2010PropOp35
 70
     1
102
RTVSPost2010Prop36
280
     0
102
RTVSPost2010PropOp36
 70
     1
102
RTVSPost2010Prop37
 90
       50
102
RTVSPost2010PropOp37
 70
     1
102
RTVSPost2010Prop38
140
0.0
102
RTVSPost2010PropOp38
 70
     1
102
RTVSPost2010Prop39
140
1.0
102
RTVSPost2010PropOp39
 70
     1
102
RTVSPost2010Prop40
 90
        0
102
RTVSPost2010PropOp40
 70
     1
102
RTVSPost2010Prop41ColorIndex
 90
       18
102
RTVSPost2010Prop41ColorRGB
 90
        0
102
RTVSPost2010PropOp41
 70
     1
102
RTVSPost2010Prop42
 90
       50
102
RTVSPost2010PropOp42
 70
     1
102
RTVSPost2010Prop43
 90
        3
102
RTVSPost2010PropOp43
 70
     1
102
RTVSPost2010Prop44ColorIndex
 90
        5
102
RTVSPost2010Prop44ColorRGB
 90
      255
102
RTVSPost2010PropOp44
 70
     1
102
RTVSPost2010Prop45
280
     0
102
RTVSPost2010PropOp45
 70
     1
102
RTVSPost2010Prop46
 90
       50
102
RTVSPost2010PropOp46
 70
     1
102
RTVSPost2010Prop47
 90
       50
102
RTVSPost2010PropOp47
 70
     1
102
RTVSPost2010Prop48
 90
       50
102
RTVSPost2010PropOp48
 70
     1
102
RTVSPost2010Prop49
280
     0
102
RTVSPost2010PropOp49
 70
     1
102
RTVSPost2010Prop50
 90
       50
102
RTVSPost2010PropOp50
 70
     1
102
RTVSPost2010Prop51ColorIndex
 90
      256
102
RTVSPost2010Prop51ColorRGB
 90
-16777216
102
RTVSPost2010PropOp51
 70
     0
102
RTVSPost2010Prop52
140
1.0
102
RTVSPost2010PropOp52
 70
     0
102
RTVSPost2010Prop53
 90
        2
102
RTVSPost2010PropOp53
 70
     1
102
RTVSPost2010Prop54
  1
strokes_ogs.tif
102
RTVSPost2010PropOp54
 70
     1
102
RTVSPost2010Prop55
280
     0
102
RTVSPost2010PropOp55
 70
     1
102
RTVSPost2010Prop56
140
1.0
102
RTVSPost2010PropOp56
 70
     1
102
RTVSPost2010Prop57
140
1.0
102
RTVSPost2010PropOp57
 70
     1
102
RTVSPropertyOp0
 70
     1
102
RTVSPropertyOp1
 70
     1
102
RTVSPropertyOp2
 70
     1
102
RTVSPropertyOp3
 70
     1
102
RTVSPropertyOp4
 70
     1
102
RTVSPropertyOp5
 70
     1
102
RTVSPropertyOp6
 70
     1
102
RTVSPropertyOp7
 70
     1
102
RTVSPropertyOp8
 70
     1
102
RTVSPropertyOp9
 70
     1
102
RTVSPropertyOp10
 70
     1
102
RTVSPropertyOp11
 70
     1
102
RTVSPropertyOp12
 70
     1
102
RTVSPropertyOp13
 70
     1
102
RTVSPropertyOp14
 70
     1
102
RTVSPropertyOp15
 70
     1
102
RTVSPropertyOp16
 70
     1
102
RTVSPropertyOp17
 70
     1
102
RTVSPropertyOp18
 70
     1
102
RTVSPropertyOp19
 70
     1
102
RTVSPropertyOp20
 70
     1
102
RTVSPropertyOp21
 70
     1
102
RTVSPropertyOp22
 70
     1
102
RTVSPropertyOp23
 70
     1
102
RTVSPropertyOp24
 70
     1
102
RTVSPropertyOp25
 70
     1
102
RTVSPropertyOp26
 70
     1
102
RTVSPropertyOp27
 70
     1
102
RTVSPropertyOp28
 70
     1
102
RTVSPropertyOp29
 70
     1
102
RTVSPropertyOp30
 70
     1
102
RTVSPropertyOp31
 70
     1
102
RTVSPropertyOp32
 70
     1
102
RTVSPropertyOp33
 70
     1
102
RTVSPropertyOp34
 70
     1
102
RTVSPropertyOp35
 70
     1
102
RTVSPropertyOp36
 70
     1
102
RTVSPropertyOp37
 70
     1
102
RTVSPropertyOp38
 70
     1
102
RTVSPropertyOp39
 70
     1
102
RTVSPropertyOp40
 70
     1
102
RTVSPropertyOp41
 70
     1
102
RTVSPropertyOp42
 70
     1
102
RTVSPropertyOp43
 70
     1
102
RTVSPropertyOp44
 70
     1
102
RTVSPropertyOp45
 70
     1
102
RTVSPropertyOp46
 70
     1
102
RTVSPropertyOp47
 70
     1
102
RTVSPropertyOp48
 70
     1
102
RTVSPropertyOp49
 70
     1
102
RTVSPropertyOp50
 70
     1
102
RTVSPropertyOp51
 70
     0
102
RTVSPropertyOp52
 70
     0
102
RTVSPropertyOp53
 70
     1
102
RTVSPropertyOp54
 70
     1
102
RTVSPropertyOp55
 70
     1
102
RTVSPropertyOp56
 70
     1
102
RTVSPropertyOp57
 70
     1
102
RTVSPropertyOp58
 70
     1
102
RTVSPropertyOp59
 70
     1
102
RTVSPropertyOp60
 70
     1
102
RTVSPropertyOp61
 70
     1
102
RTVSPropertyOp62
 70
     1
  0
XRECORD
  5
3FB
102
{ACAD_REACTORS
330
3FA
102
}
330
3FA
100
AcDbXrecord
280
     1
102
RTVSPost2010Prop28
280
     0
102
RTVSPost2010PropOp28
 70
     1
102
RTVSPost2010Prop29
280
     1
102
RTVSPost2010PropOp29
 70
     1
102
RTVSPost2010Prop30
280
     1
102
RTVSPost2010PropOp30
 70
     1
102
RTVSPost2010Prop31
280
     0
102
RTVSPost2010PropOp31
 70
     1
102
RTVSPost2010Prop32
280
     0
102
RTVSPost2010PropOp32
 70
     1
102
RTVSPost2010Prop33
280
     0
102
RTVSPost2010PropOp33
 70
     1
102
RTVSPost2010Prop34
280
     0
102
RTVSPost2010PropOp34
 70
     1
102
RTVSPost2010Prop35
280
     0
102
RTVSPost2010PropOp35
 70
     1
102
RTVSPost2010Prop36
280
     0
102
RTVSPost2010PropOp36
 70
     1
102
RTVSPost2010Prop37
 90
       50
102
RTVSPost2010PropOp37
 70
     1
102
RTVSPost2010Prop38
140
0.0
102
RTVSPost2010PropOp38
 70
     1
102
RTVSPost2010Prop39
140
1.0
102
RTVSPost2010PropOp39
 70
     1
102
RTVSPost2010Prop40
 90
        0
102
RTVSPost2010PropOp40
 70
     1
102
RTVSPost2010Prop41ColorIndex
 90
       18
102
RTVSPost2010Prop41ColorRGB
 90
        0
102
RTVSPost2010PropOp41
 70
     1
102
RTVSPost2010Prop42
 90
       50
102
RTVSPost2010PropOp42
 70
     1
102
RTVSPost2010Prop43
 90
        3
102
RTVSPost2010PropOp43
 70
     1
102
RTVSPost2010Prop44ColorIndex
 90
        5
102
RTVSPost2010Prop44ColorRGB
 90
      255
102
RTVSPost2010PropOp44
 70
     1
102
RTVSPost2010Prop45
280
     0
102
RTVSPost2010PropOp45
 70
     1
102
RTVSPost2010Prop46
 90
       50
102
RTVSPost2010PropOp46
 70
     1
102
RTVSPost2010Prop47
 90
       50
102
RTVSPost2010PropOp47
 70
     1
102
RTVSPost2010Prop48
 90
       50
102
RTVSPost2010PropOp48
 70
     1
102
RTVSPost2010Prop49
280
     0
102
RTVSPost2010PropOp49
 70
     1
102
RTVSPost2010Prop50
 90
       50
102
RTVSPost2010PropOp50
 70
     1
102
RTVSPost2010Prop51ColorIndex
 90
      256
102
RTVSPost2010Prop51ColorRGB
 90
-16777216
102
RTVSPost2010PropOp51
 70
     0
102
RTVSPost2010Prop52
140
1.0
102
RTVSPost2010PropOp52
 70
     0
102
RTVSPost2010Prop53
 90
        2
102
RTVSPost2010PropOp53
 70
     1
102
RTVSPost2010Prop54
  1
strokes_ogs.tif
102
RTVSPost2010PropOp54
 70
     1
102
RTVSPost2010Prop55
280
     0
102
RTVSPost2010PropOp55
 70
     1
102
RTVSPost2010Prop56
140
1.0
102
RTVSPost2010PropOp56
 70
     1
102
RTVSPost2010Prop57
140
1.0
102
RTVSPost2010PropOp57
 70
     1
102
RTVSPropertyOp0
 70
     1
102
RTVSPropertyOp1
 70
     1
102
RTVSPropertyOp2
 70
     1
102
RTVSPropertyOp3
 70
     1
102
RTVSPropertyOp4
 70
     1
102
RTVSPropertyOp5
 70
     1
102
RTVSPropertyOp6
 70
     1
102
RTVSPropertyOp7
 70
     1
102
RTVSPropertyOp8
 70
     1
102
RTVSPropertyOp9
 70
     1
102
RTVSPropertyOp10
 70
     1
102
RTVSPropertyOp11
 70
     1
102
RTVSPropertyOp12
 70
     1
102
RTVSPropertyOp13
 70
     1
102
RTVSPropertyOp14
 70
     1
102
RTVSPropertyOp15
 70
     1
102
RTVSPropertyOp16
 70
     1
102
RTVSPropertyOp17
 70
     1
102
RTVSPropertyOp18
 70
     1
102
RTVSPropertyOp19
 70
     1
102
RTVSPropertyOp20
 70
     1
102
RTVSPropertyOp21
 70
     1
102
RTVSPropertyOp22
 70
     1
102
RTVSPropertyOp23
 70
     1
102
RTVSPropertyOp24
 70
     1
102
RTVSPropertyOp25
 70
     1
102
RTVSPropertyOp26
 70
     1
102
RTVSPropertyOp27
 70
     1
102
RTVSPropertyOp28
 70
     1
102
RTVSPropertyOp29
 70
     1
102
RTVSPropertyOp30
 70
     1
102
RTVSPropertyOp31
 70
     1
102
RTVSPropertyOp32
 70
     1
102
RTVSPropertyOp33
 70
     1
102
RTVSPropertyOp34
 70
     1
102
RTVSPropertyOp35
 70
     1
102
RTVSPropertyOp36
 70
     1
102
RTVSPropertyOp37
 70
     1
102
RTVSPropertyOp38
 70
     1
102
RTVSPropertyOp39
 70
     1
102
RTVSPropertyOp40
 70
     1
102
RTVSPropertyOp41
 70
     1
102
RTVSPropertyOp42
 70
     1
102
RTVSPropertyOp43
 70
     1
102
RTVSPropertyOp44
 70
     1
102
RTVSPropertyOp45
 70
     1
102
RTVSPropertyOp46
 70
     1
102
RTVSPropertyOp47
 70
     1
102
RTVSPropertyOp48
 70
     1
102
RTVSPropertyOp49
 70
     1
102
RTVSPropertyOp50
 70
     1
102
RTVSPropertyOp51
 70
     0
102
RTVSPropertyOp52
 70
     0
102
RTVSPropertyOp53
 70
     1
102
RTVSPropertyOp54
 70
     1
102
RTVSPropertyOp55
 70
     1
102
RTVSPropertyOp56
 70
     1
102
RTVSPropertyOp57
 70
     1
102
RTVSPropertyOp58
 70
     1
102
RTVSPropertyOp59
 70
     1
102
RTVSPropertyOp60
 70
     1
102
RTVSPropertyOp61
 70
     1
102
RTVSPropertyOp62
 70
     1
  0
XRECORD
  5
401
102
{ACAD_REACTORS
330
400
102
}
330
400
100
AcDbXrecord
280
     1
102
RTVSPost2010Prop28
280
     0
102
RTVSPost2010PropOp28
 70
     1
102
RTVSPost2010Prop29
280
     1
102
RTVSPost2010PropOp29
 70
     1
102
RTVSPost2010Prop30
280
     1
102
RTVSPost2010PropOp30
 70
     1
102
RTVSPost2010Prop31
280
     0
102
RTVSPost2010PropOp31
 70
     1
102
RTVSPost2010Prop32
280
     0
102
RTVSPost2010PropOp32
 70
     1
102
RTVSPost2010Prop33
280
     0
102
RTVSPost2010PropOp33
 70
     1
102
RTVSPost2010Prop34
280
     0
102
RTVSPost2010PropOp34
 70
     1
102
RTVSPost2010Prop35
280
     0
102
RTVSPost2010PropOp35
 70
     1
102
RTVSPost2010Prop36
280
     0
102
RTVSPost2010PropOp36
 70
     1
102
RTVSPost2010Prop37
 90
       50
102
RTVSPost2010PropOp37
 70
     1
102
RTVSPost2010Prop38
140
0.0
102
RTVSPost2010PropOp38
 70
     1
102
RTVSPost2010Prop39
140
1.0
102
RTVSPost2010PropOp39
 70
     1
102
RTVSPost2010Prop40
 90
        0
102
RTVSPost2010PropOp40
 70
     1
102
RTVSPost2010Prop41ColorIndex
 90
       18
102
RTVSPost2010Prop41ColorRGB
 90
        0
102
RTVSPost2010PropOp41
 70
     1
102
RTVSPost2010Prop42
 90
       50
102
RTVSPost2010PropOp42
 70
     1
102
RTVSPost2010Prop43
 90
        3
102
RTVSPost2010PropOp43
 70
     1
102
RTVSPost2010Prop44ColorIndex
 90
        5
102
RTVSPost2010Prop44ColorRGB
 90
      255
102
RTVSPost2010PropOp44
 70
     1
102
RTVSPost2010Prop45
280
     0
102
RTVSPost2010PropOp45
 70
     1
102
RTVSPost2010Prop46
 90
       50
102
RTVSPost2010PropOp46
 70
     1
102
RTVSPost2010Prop47
 90
       50
102
RTVSPost2010PropOp47
 70
     1
102
RTVSPost2010Prop48
 90
       50
102
RTVSPost2010PropOp48
 70
     1
102
RTVSPost2010Prop49
280
     0
102
RTVSPost2010PropOp49
 70
     1
102
RTVSPost2010Prop50
 90
       50
102
RTVSPost2010PropOp50
 70
     1
102
RTVSPost2010Prop51ColorIndex
 90
      256
102
RTVSPost2010Prop51ColorRGB
 90
-16777216
102
RTVSPost2010PropOp51
 70
     0
102
RTVSPost2010Prop52
140
1.0
102
RTVSPost2010PropOp52
 70
     0
102
RTVSPost2010Prop53
 90
        2
102
RTVSPost2010PropOp53
 70
     1
102
RTVSPost2010Prop54
  1
strokes_ogs.tif
102
RTVSPost2010PropOp54
 70
     1
102
RTVSPost2010Prop55
280
     0
102
RTVSPost2010PropOp55
 70
     1
102
RTVSPost2010Prop56
140
1.0
102
RTVSPost2010PropOp56
 70
     1
102
RTVSPost2010Prop57
140
1.0
102
RTVSPost2010PropOp57
 70
     1
102
RTVSPropertyOp0
 70
     1
102
RTVSPropertyOp1
 70
     1
102
RTVSPropertyOp2
 70
     1
102
RTVSPropertyOp3
 70
     1
102
RTVSPropertyOp4
 70
     1
102
RTVSPropertyOp5
 70
     1
102
RTVSPropertyOp6
 70
     1
102
RTVSPropertyOp7
 70
     1
102
RTVSPropertyOp8
 70
     1
102
RTVSPropertyOp9
 70
     1
102
RTVSPropertyOp10
 70
     1
102
RTVSPropertyOp11
 70
     1
102
RTVSPropertyOp12
 70
     1
102
RTVSPropertyOp13
 70
     1
102
RTVSPropertyOp14
 70
     1
102
RTVSPropertyOp15
 70
     1
102
RTVSPropertyOp16
 70
     1
102
RTVSPropertyOp17
 70
     1
102
RTVSPropertyOp18
 70
     1
102
RTVSPropertyOp19
 70
     1
102
RTVSPropertyOp20
 70
     1
102
RTVSPropertyOp21
 70
     1
102
RTVSPropertyOp22
 70
     1
102
RTVSPropertyOp23
 70
     1
102
RTVSPropertyOp24
 70
     1
102
RTVSPropertyOp25
 70
     1
102
RTVSPropertyOp26
 70
     1
102
RTVSPropertyOp27
 70
     1
102
RTVSPropertyOp28
 70
     1
102
RTVSPropertyOp29
 70
     1
102
RTVSPropertyOp30
 70
     1
102
RTVSPropertyOp31
 70
     1
102
RTVSPropertyOp32
 70
     1
102
RTVSPropertyOp33
 70
     1
102
RTVSPropertyOp34
 70
     1
102
RTVSPropertyOp35
 70
     1
102
RTVSPropertyOp36
 70
     1
102
RTVSPropertyOp37
 70
     1
102
RTVSPropertyOp38
 70
     1
102
RTVSPropertyOp39
 70
     1
102
RTVSPropertyOp40
 70
     1
102
RTVSPropertyOp41
 70
     1
102
RTVSPropertyOp42
 70
     1
102
RTVSPropertyOp43
 70
     1
102
RTVSPropertyOp44
 70
     1
102
RTVSPropertyOp45
 70
     1
102
RTVSPropertyOp46
 70
     1
102
RTVSPropertyOp47
 70
     1
102
RTVSPropertyOp48
 70
     1
102
RTVSPropertyOp49
 70
     1
102
RTVSPropertyOp50
 70
     1
102
RTVSPropertyOp51
 70
     0
102
RTVSPropertyOp52
 70
     0
102
RTVSPropertyOp53
 70
     1
102
RTVSPropertyOp54
 70
     1
102
RTVSPropertyOp55
 70
     1
102
RTVSPropertyOp56
 70
     1
102
RTVSPropertyOp57
 70
     1
102
RTVSPropertyOp58
 70
     1
102
RTVSPropertyOp59
 70
     1
102
RTVSPropertyOp60
 70
     1
102
RTVSPropertyOp61
 70
     1
102
RTVSPropertyOp62
 70
     1
  0
XRECORD
  5
415
102
{ACAD_REACTORS
330
414
102
}
330
414
100
AcDbXrecord
280
     1
102
RTVSPost2010Prop28
280
     0
102
RTVSPost2010PropOp28
 70
     1
102
RTVSPost2010Prop29
280
     1
102
RTVSPost2010PropOp29
 70
     1
102
RTVSPost2010Prop30
280
     1
102
RTVSPost2010PropOp30
 70
     1
102
RTVSPost2010Prop31
280
     0
102
RTVSPost2010PropOp31
 70
     1
102
RTVSPost2010Prop32
280
     0
102
RTVSPost2010PropOp32
 70
     1
102
RTVSPost2010Prop33
280
     0
102
RTVSPost2010PropOp33
 70
     1
102
RTVSPost2010Prop34
280
     0
102
RTVSPost2010PropOp34
 70
     1
102
RTVSPost2010Prop35
280
     0
102
RTVSPost2010PropOp35
 70
     1
102
RTVSPost2010Prop36
280
     0
102
RTVSPost2010PropOp36
 70
     1
102
RTVSPost2010Prop37
 90
       50
102
RTVSPost2010PropOp37
 70
     1
102
RTVSPost2010Prop38
140
0.0
102
RTVSPost2010PropOp38
 70
     1
102
RTVSPost2010Prop39
140
1.0
102
RTVSPost2010PropOp39
 70
     1
102
RTVSPost2010Prop40
 90
        0
102
RTVSPost2010PropOp40
 70
     1
102
RTVSPost2010Prop41ColorIndex
 90
       18
102
RTVSPost2010Prop41ColorRGB
 90
        0
102
RTVSPost2010PropOp41
 70
     1
102
RTVSPost2010Prop42
 90
       50
102
RTVSPost2010PropOp42
 70
     1
102
RTVSPost2010Prop43
 90
        3
102
RTVSPost2010PropOp43
 70
     1
102
RTVSPost2010Prop44ColorIndex
 90
        5
102
RTVSPost2010Prop44ColorRGB
 90
      255
102
RTVSPost2010PropOp44
 70
     1
102
RTVSPost2010Prop45
280
     0
102
RTVSPost2010PropOp45
 70
     1
102
RTVSPost2010Prop46
 90
       50
102
RTVSPost2010PropOp46
 70
     1
102
RTVSPost2010Prop47
 90
       50
102
RTVSPost2010PropOp47
 70
     1
102
RTVSPost2010Prop48
 90
       50
102
RTVSPost2010PropOp48
 70
     1
102
RTVSPost2010Prop49
280
     0
102
RTVSPost2010PropOp49
 70
     1
102
RTVSPost2010Prop50
 90
       50
102
RTVSPost2010PropOp50
 70
     1
102
RTVSPost2010Prop51ColorIndex
 90
      256
102
RTVSPost2010Prop51ColorRGB
 90
-16777216
102
RTVSPost2010PropOp51
 70
     0
102
RTVSPost2010Prop52
140
1.0
102
RTVSPost2010PropOp52
 70
     0
102
RTVSPost2010Prop53
 90
        2
102
RTVSPost2010PropOp53
 70
     1
102
RTVSPost2010Prop54
  1
strokes_ogs.tif
102
RTVSPost2010PropOp54
 70
     1
102
RTVSPost2010Prop55
280
     0
102
RTVSPost2010PropOp55
 70
     1
102
RTVSPost2010Prop56
140
1.0
102
RTVSPost2010PropOp56
 70
     1
102
RTVSPost2010Prop57
140
1.0
102
RTVSPost2010PropOp57
 70
     1
102
RTVSPropertyOp0
 70
     0
102
RTVSPropertyOp1
 70
     0
102
RTVSPropertyOp2
 70
     0
102
RTVSPropertyOp3
 70
     0
102
RTVSPropertyOp4
 70
     0
102
RTVSPropertyOp5
 70
     0
102
RTVSPropertyOp6
 70
     0
102
RTVSPropertyOp7
 70
     0
102
RTVSPropertyOp8
 70
     0
102
RTVSPropertyOp9
 70
     0
102
RTVSPropertyOp10
 70
     0
102
RTVSPropertyOp11
 70
     0
102
RTVSPropertyOp12
 70
     0
102
RTVSPropertyOp13
 70
     0
102
RTVSPropertyOp14
 70
     0
102
RTVSPropertyOp15
 70
     0
102
RTVSPropertyOp16
 70
     0
102
RTVSPropertyOp17
 70
     0
102
RTVSPropertyOp18
 70
     0
102
RTVSPropertyOp19
 70
     0
102
RTVSPropertyOp20
 70
     0
102
RTVSPropertyOp21
 70
     0
102
RTVSPropertyOp22
 70
     0
102
RTVSPropertyOp23
 70
     0
102
RTVSPropertyOp24
 70
     0
102
RTVSPropertyOp25
 70
     0
102
RTVSPropertyOp26
 70
     0
102
RTVSPropertyOp27
 70
     0
102
RTVSPropertyOp28
 70
     1
102
RTVSPropertyOp29
 70
     1
102
RTVSPropertyOp30
 70
     1
102
RTVSPropertyOp31
 70
     1
102
RTVSPropertyOp32
 70
     1
102
RTVSPropertyOp33
 70
     1
102
RTVSPropertyOp34
 70
     1
102
RTVSPropertyOp35
 70
     1
102
RTVSPropertyOp36
 70
     1
102
RTVSPropertyOp37
 70
     1
102
RTVSPropertyOp38
 70
     1
102
RTVSPropertyOp39
 70
     1
102
RTVSPropertyOp40
 70
     1
102
RTVSPropertyOp41
 70
     1
102
RTVSPropertyOp42
 70
     1
102
RTVSPropertyOp43
 70
     1
102
RTVSPropertyOp44
 70
     1
102
RTVSPropertyOp45
 70
     1
102
RTVSPropertyOp46
 70
     1
102
RTVSPropertyOp47
 70
     1
102
RTVSPropertyOp48
 70
     1
102
RTVSPropertyOp49
 70
     1
102
RTVSPropertyOp50
 70
     1
102
RTVSPropertyOp51
 70
     0
102
RTVSPropertyOp52
 70
     0
102
RTVSPropertyOp53
 70
     1
102
RTVSPropertyOp54
 70
     1
102
RTVSPropertyOp55
 70
     1
102
RTVSPropertyOp56
 70
     1
102
RTVSPropertyOp57
 70
     1
102
RTVSPropertyOp58
 70
     1
102
RTVSPropertyOp59
 70
     1
102
RTVSPropertyOp60
 70
     1
102
RTVSPropertyOp61
 70
     1
102
RTVSPropertyOp62
 70
     1
  0
XRECORD
  5
40F
102
{ACAD_REACTORS
330
40E
102
}
330
40E
100
AcDbXrecord
280
     1
102
RTVSPost2010Prop28
280
     0
102
RTVSPost2010PropOp28
 70
     1
102
RTVSPost2010Prop29
280
     1
102
RTVSPost2010PropOp29
 70
     1
102
RTVSPost2010Prop30
280
     1
102
RTVSPost2010PropOp30
 70
     1
102
RTVSPost2010Prop31
280
     0
102
RTVSPost2010PropOp31
 70
     1
102
RTVSPost2010Prop32
280
     0
102
RTVSPost2010PropOp32
 70
     1
102
RTVSPost2010Prop33
280
     0
102
RTVSPost2010PropOp33
 70
     1
102
RTVSPost2010Prop34
280
     0
102
RTVSPost2010PropOp34
 70
     1
102
RTVSPost2010Prop35
280
     0
102
RTVSPost2010PropOp35
 70
     1
102
RTVSPost2010Prop36
280
     0
102
RTVSPost2010PropOp36
 70
     1
102
RTVSPost2010Prop37
 90
       50
102
RTVSPost2010PropOp37
 70
     1
102
RTVSPost2010Prop38
140
0.0
102
RTVSPost2010PropOp38
 70
     1
102
RTVSPost2010Prop39
140
1.0
102
RTVSPost2010PropOp39
 70
     1
102
RTVSPost2010Prop40
 90
        0
102
RTVSPost2010PropOp40
 70
     1
102
RTVSPost2010Prop41ColorIndex
 90
       18
102
RTVSPost2010Prop41ColorRGB
 90
        0
102
RTVSPost2010PropOp41
 70
     1
102
RTVSPost2010Prop42
 90
       50
102
RTVSPost2010PropOp42
 70
     1
102
RTVSPost2010Prop43
 90
        3
102
RTVSPost2010PropOp43
 70
     1
102
RTVSPost2010Prop44ColorIndex
 90
        5
102
RTVSPost2010Prop44ColorRGB
 90
      255
102
RTVSPost2010PropOp44
 70
     1
102
RTVSPost2010Prop45
280
     0
102
RTVSPost2010PropOp45
 70
     1
102
RTVSPost2010Prop46
 90
       50
102
RTVSPost2010PropOp46
 70
     1
102
RTVSPost2010Prop47
 90
       50
102
RTVSPost2010PropOp47
 70
     1
102
RTVSPost2010Prop48
 90
       50
102
RTVSPost2010PropOp48
 70
     1
102
RTVSPost2010Prop49
280
     0
102
RTVSPost2010PropOp49
 70
     1
102
RTVSPost2010Prop50
 90
       50
102
RTVSPost2010PropOp50
 70
     1
102
RTVSPost2010Prop51ColorIndex
 90
      256
102
RTVSPost2010Prop51ColorRGB
 90
-16777216
102
RTVSPost2010PropOp51
 70
     0
102
RTVSPost2010Prop52
140
1.0
102
RTVSPost2010PropOp52
 70
     0
102
RTVSPost2010Prop53
 90
        2
102
RTVSPost2010PropOp53
 70
     1
102
RTVSPost2010Prop54
  1
strokes_ogs.tif
102
RTVSPost2010PropOp54
 70
     1
102
RTVSPost2010Prop55
280
     0
102
RTVSPost2010PropOp55
 70
     1
102
RTVSPost2010Prop56
140
1.0
102
RTVSPost2010PropOp56
 70
     1
102
RTVSPost2010Prop57
140
1.0
102
RTVSPost2010PropOp57
 70
     1
102
RTVSPropertyOp0
 70
     1
102
RTVSPropertyOp1
 70
     1
102
RTVSPropertyOp2
 70
     1
102
RTVSPropertyOp3
 70
     1
102
RTVSPropertyOp4
 70
     1
102
RTVSPropertyOp5
 70
     1
102
RTVSPropertyOp6
 70
     1
102
RTVSPropertyOp7
 70
     1
102
RTVSPropertyOp8
 70
     1
102
RTVSPropertyOp9
 70
     1
102
RTVSPropertyOp10
 70
     1
102
RTVSPropertyOp11
 70
     1
102
RTVSPropertyOp12
 70
     1
102
RTVSPropertyOp13
 70
     1
102
RTVSPropertyOp14
 70
     1
102
RTVSPropertyOp15
 70
     1
102
RTVSPropertyOp16
 70
     1
102
RTVSPropertyOp17
 70
     1
102
RTVSPropertyOp18
 70
     1
102
RTVSPropertyOp19
 70
     1
102
RTVSPropertyOp20
 70
     1
102
RTVSPropertyOp21
 70
     1
102
RTVSPropertyOp22
 70
     1
102
RTVSPropertyOp23
 70
     1
102
RTVSPropertyOp24
 70
     1
102
RTVSPropertyOp25
 70
     1
102
RTVSPropertyOp26
 70
     1
102
RTVSPropertyOp27
 70
     1
102
RTVSPropertyOp28
 70
     1
102
RTVSPropertyOp29
 70
     1
102
RTVSPropertyOp30
 70
     1
102
RTVSPropertyOp31
 70
     1
102
RTVSPropertyOp32
 70
     1
102
RTVSPropertyOp33
 70
     1
102
RTVSPropertyOp34
 70
     1
102
RTVSPropertyOp35
 70
     1
102
RTVSPropertyOp36
 70
     1
102
RTVSPropertyOp37
 70
     1
102
RTVSPropertyOp38
 70
     1
102
RTVSPropertyOp39
 70
     1
102
RTVSPropertyOp40
 70
     1
102
RTVSPropertyOp41
 70
     1
102
RTVSPropertyOp42
 70
     1
102
RTVSPropertyOp43
 70
     1
102
RTVSPropertyOp44
 70
     1
102
RTVSPropertyOp45
 70
     1
102
RTVSPropertyOp46
 70
     1
102
RTVSPropertyOp47
 70
     1
102
RTVSPropertyOp48
 70
     1
102
RTVSPropertyOp49
 70
     1
102
RTVSPropertyOp50
 70
     1
102
RTVSPropertyOp51
 70
     0
102
RTVSPropertyOp52
 70
     0
102
RTVSPropertyOp53
 70
     1
102
RTVSPropertyOp54
 70
     1
102
RTVSPropertyOp55
 70
     1
102
RTVSPropertyOp56
 70
     1
102
RTVSPropertyOp57
 70
     1
102
RTVSPropertyOp58
 70
     1
102
RTVSPropertyOp59
 70
     1
102
RTVSPropertyOp60
 70
     1
102
RTVSPropertyOp61
 70
     1
102
RTVSPropertyOp62
 70
     1
  0
XRECORD
  5
417
102
{ACAD_REACTORS
330
416
102
}
330
416
100
AcDbXrecord
280
     1
102
RTVSPost2010Prop28
280
     0
102
RTVSPost2010PropOp28
 70
     1
102
RTVSPost2010Prop29
280
     1
102
RTVSPost2010PropOp29
 70
     1
102
RTVSPost2010Prop30
280
     1
102
RTVSPost2010PropOp30
 70
     1
102
RTVSPost2010Prop31
280
     0
102
RTVSPost2010PropOp31
 70
     1
102
RTVSPost2010Prop32
280
     0
102
RTVSPost2010PropOp32
 70
     1
102
RTVSPost2010Prop33
280
     0
102
RTVSPost2010PropOp33
 70
     1
102
RTVSPost2010Prop34
280
     0
102
RTVSPost2010PropOp34
 70
     1
102
RTVSPost2010Prop35
280
     0
102
RTVSPost2010PropOp35
 70
     1
102
RTVSPost2010Prop36
280
     0
102
RTVSPost2010PropOp36
 70
     1
102
RTVSPost2010Prop37
 90
       50
102
RTVSPost2010PropOp37
 70
     1
102
RTVSPost2010Prop38
140
0.0
102
RTVSPost2010PropOp38
 70
     1
102
RTVSPost2010Prop39
140
1.0
102
RTVSPost2010PropOp39
 70
     1
102
RTVSPost2010Prop40
 90
        0
102
RTVSPost2010PropOp40
 70
     1
102
RTVSPost2010Prop41ColorIndex
 90
       18
102
RTVSPost2010Prop41ColorRGB
 90
        0
102
RTVSPost2010PropOp41
 70
     1
102
RTVSPost2010Prop42
 90
       50
102
RTVSPost2010PropOp42
 70
     1
102
RTVSPost2010Prop43
 90
        3
102
RTVSPost2010PropOp43
 70
     1
102
RTVSPost2010Prop44ColorIndex
 90
        5
102
RTVSPost2010Prop44ColorRGB
 90
      255
102
RTVSPost2010PropOp44
 70
     1
102
RTVSPost2010Prop45
280
     0
102
RTVSPost2010PropOp45
 70
     1
102
RTVSPost2010Prop46
 90
       50
102
RTVSPost2010PropOp46
 70
     1
102
RTVSPost2010Prop47
 90
       50
102
RTVSPost2010PropOp47
 70
     1
102
RTVSPost2010Prop48
 90
       50
102
RTVSPost2010PropOp48
 70
     1
102
RTVSPost2010Prop49
280
     0
102
RTVSPost2010PropOp49
 70
     1
102
RTVSPost2010Prop50
 90
       50
102
RTVSPost2010PropOp50
 70
     1
102
RTVSPost2010Prop51ColorIndex
 90
      256
102
RTVSPost2010Prop51ColorRGB
 90
-16777216
102
RTVSPost2010PropOp51
 70
     0
102
RTVSPost2010Prop52
140
1.0
102
RTVSPost2010PropOp52
 70
     0
102
RTVSPost2010Prop53
 90
        2
102
RTVSPost2010PropOp53
 70
     1
102
RTVSPost2010Prop54
  1
strokes_ogs.tif
102
RTVSPost2010PropOp54
 70
     1
102
RTVSPost2010Prop55
280
     0
102
RTVSPost2010PropOp55
 70
     1
102
RTVSPost2010Prop56
140
1.0
102
RTVSPost2010PropOp56
 70
     1
102
RTVSPost2010Prop57
140
1.0
102
RTVSPost2010PropOp57
 70
     1
102
RTVSPropertyOp0
 70
     0
102
RTVSPropertyOp1
 70
     0
102
RTVSPropertyOp2
 70
     0
102
RTVSPropertyOp3
 70
     0
102
RTVSPropertyOp4
 70
     0
102
RTVSPropertyOp5
 70
     0
102
RTVSPropertyOp6
 70
     0
102
RTVSPropertyOp7
 70
     0
102
RTVSPropertyOp8
 70
     0
102
RTVSPropertyOp9
 70
     0
102
RTVSPropertyOp10
 70
     0
102
RTVSPropertyOp11
 70
     0
102
RTVSPropertyOp12
 70
     0
102
RTVSPropertyOp13
 70
     0
102
RTVSPropertyOp14
 70
     0
102
RTVSPropertyOp15
 70
     0
102
RTVSPropertyOp16
 70
     0
102
RTVSPropertyOp17
 70
     0
102
RTVSPropertyOp18
 70
     0
102
RTVSPropertyOp19
 70
     0
102
RTVSPropertyOp20
 70
     0
102
RTVSPropertyOp21
 70
     0
102
RTVSPropertyOp22
 70
     0
102
RTVSPropertyOp23
 70
     0
102
RTVSPropertyOp24
 70
     0
102
RTVSPropertyOp25
 70
     0
102
RTVSPropertyOp26
 70
     0
102
RTVSPropertyOp27
 70
     0
102
RTVSPropertyOp28
 70
     1
102
RTVSPropertyOp29
 70
     1
102
RTVSPropertyOp30
 70
     1
102
RTVSPropertyOp31
 70
     1
102
RTVSPropertyOp32
 70
     1
102
RTVSPropertyOp33
 70
     1
102
RTVSPropertyOp34
 70
     1
102
RTVSPropertyOp35
 70
     1
102
RTVSPropertyOp36
 70
     1
102
RTVSPropertyOp37
 70
     1
102
RTVSPropertyOp38
 70
     1
102
RTVSPropertyOp39
 70
     1
102
RTVSPropertyOp40
 70
     1
102
RTVSPropertyOp41
 70
     1
102
RTVSPropertyOp42
 70
     1
102
RTVSPropertyOp43
 70
     1
102
RTVSPropertyOp44
 70
     1
102
RTVSPropertyOp45
 70
     1
102
RTVSPropertyOp46
 70
     1
102
RTVSPropertyOp47
 70
     1
102
RTVSPropertyOp48
 70
     1
102
RTVSPropertyOp49
 70
     1
102
RTVSPropertyOp50
 70
     1
102
RTVSPropertyOp51
 70
     0
102
RTVSPropertyOp52
 70
     0
102
RTVSPropertyOp53
 70
     1
102
RTVSPropertyOp54
 70
     1
102
RTVSPropertyOp55
 70
     1
102
RTVSPropertyOp56
 70
     1
102
RTVSPropertyOp57
 70
     1
102
RTVSPropertyOp58
 70
     1
102
RTVSPropertyOp59
 70
     1
102
RTVSPropertyOp60
 70
     1
102
RTVSPropertyOp61
 70
     1
102
RTVSPropertyOp62
 70
     1
  0
XRECORD
  5
405
102
{ACAD_REACTORS
330
404
102
}
330
404
100
AcDbXrecord
280
     1
102
RTVSPost2010Prop28
280
     0
102
RTVSPost2010PropOp28
 70
     1
102
RTVSPost2010Prop29
280
     1
102
RTVSPost2010PropOp29
 70
     1
102
RTVSPost2010Prop30
280
     1
102
RTVSPost2010PropOp30
 70
     1
102
RTVSPost2010Prop31
280
     0
102
RTVSPost2010PropOp31
 70
     1
102
RTVSPost2010Prop32
280
     0
102
RTVSPost2010PropOp32
 70
     1
102
RTVSPost2010Prop33
280
     0
102
RTVSPost2010PropOp33
 70
     1
102
RTVSPost2010Prop34
280
     0
102
RTVSPost2010PropOp34
 70
     1
102
RTVSPost2010Prop35
280
     0
102
RTVSPost2010PropOp35
 70
     1
102
RTVSPost2010Prop36
280
     0
102
RTVSPost2010PropOp36
 70
     1
102
RTVSPost2010Prop37
 90
       50
102
RTVSPost2010PropOp37
 70
     1
102
RTVSPost2010Prop38
140
0.0
102
RTVSPost2010PropOp38
 70
     1
102
RTVSPost2010Prop39
140
1.0
102
RTVSPost2010PropOp39
 70
     1
102
RTVSPost2010Prop40
 90
        0
102
RTVSPost2010PropOp40
 70
     1
102
RTVSPost2010Prop41ColorIndex
 90
       18
102
RTVSPost2010Prop41ColorRGB
 90
        0
102
RTVSPost2010PropOp41
 70
     1
102
RTVSPost2010Prop42
 90
       50
102
RTVSPost2010PropOp42
 70
     1
102
RTVSPost2010Prop43
 90
        3
102
RTVSPost2010PropOp43
 70
     1
102
RTVSPost2010Prop44ColorIndex
 90
        5
102
RTVSPost2010Prop44ColorRGB
 90
      255
102
RTVSPost2010PropOp44
 70
     1
102
RTVSPost2010Prop45
280
     0
102
RTVSPost2010PropOp45
 70
     1
102
RTVSPost2010Prop46
 90
       50
102
RTVSPost2010PropOp46
 70
     1
102
RTVSPost2010Prop47
 90
       50
102
RTVSPost2010PropOp47
 70
     1
102
RTVSPost2010Prop48
 90
       50
102
RTVSPost2010PropOp48
 70
     1
102
RTVSPost2010Prop49
280
     0
102
RTVSPost2010PropOp49
 70
     1
102
RTVSPost2010Prop50
 90
       50
102
RTVSPost2010PropOp50
 70
     1
102
RTVSPost2010Prop51ColorIndex
 90
      256
102
RTVSPost2010Prop51ColorRGB
 90
-16777216
102
RTVSPost2010PropOp51
 70
     0
102
RTVSPost2010Prop52
140
1.0
102
RTVSPost2010PropOp52
 70
     0
102
RTVSPost2010Prop53
 90
        2
102
RTVSPost2010PropOp53
 70
     1
102
RTVSPost2010Prop54
  1
strokes_ogs.tif
102
RTVSPost2010PropOp54
 70
     1
102
RTVSPost2010Prop55
280
     0
102
RTVSPost2010PropOp55
 70
     1
102
RTVSPost2010Prop56
140
1.0
102
RTVSPost2010PropOp56
 70
     1
102
RTVSPost2010Prop57
140
1.0
102
RTVSPost2010PropOp57
 70
     1
102
RTVSPropertyOp0
 70
     1
102
RTVSPropertyOp1
 70
     1
102
RTVSPropertyOp2
 70
     1
102
RTVSPropertyOp3
 70
     1
102
RTVSPropertyOp4
 70
     1
102
RTVSPropertyOp5
 70
     1
102
RTVSPropertyOp6
 70
     1
102
RTVSPropertyOp7
 70
     1
102
RTVSPropertyOp8
 70
     1
102
RTVSPropertyOp9
 70
     1
102
RTVSPropertyOp10
 70
     1
102
RTVSPropertyOp11
 70
     1
102
RTVSPropertyOp12
 70
     1
102
RTVSPropertyOp13
 70
     1
102
RTVSPropertyOp14
 70
     1
102
RTVSPropertyOp15
 70
     1
102
RTVSPropertyOp16
 70
     1
102
RTVSPropertyOp17
 70
     1
102
RTVSPropertyOp18
 70
     1
102
RTVSPropertyOp19
 70
     1
102
RTVSPropertyOp20
 70
     1
102
RTVSPropertyOp21
 70
     1
102
RTVSPropertyOp22
 70
     1
102
RTVSPropertyOp23
 70
     1
102
RTVSPropertyOp24
 70
     1
102
RTVSPropertyOp25
 70
     1
102
RTVSPropertyOp26
 70
     1
102
RTVSPropertyOp27
 70
     1
102
RTVSPropertyOp28
 70
     1
102
RTVSPropertyOp29
 70
     1
102
RTVSPropertyOp30
 70
     1
102
RTVSPropertyOp31
 70
     1
102
RTVSPropertyOp32
 70
     1
102
RTVSPropertyOp33
 70
     1
102
RTVSPropertyOp34
 70
     1
102
RTVSPropertyOp35
 70
     1
102
RTVSPropertyOp36
 70
     1
102
RTVSPropertyOp37
 70
     1
102
RTVSPropertyOp38
 70
     1
102
RTVSPropertyOp39
 70
     1
102
RTVSPropertyOp40
 70
     1
102
RTVSPropertyOp41
 70
     1
102
RTVSPropertyOp42
 70
     1
102
RTVSPropertyOp43
 70
     1
102
RTVSPropertyOp44
 70
     1
102
RTVSPropertyOp45
 70
     1
102
RTVSPropertyOp46
 70
     1
102
RTVSPropertyOp47
 70
     1
102
RTVSPropertyOp48
 70
     1
102
RTVSPropertyOp49
 70
     1
102
RTVSPropertyOp50
 70
     1
102
RTVSPropertyOp51
 70
     0
102
RTVSPropertyOp52
 70
     0
102
RTVSPropertyOp53
 70
     1
102
RTVSPropertyOp54
 70
     1
102
RTVSPropertyOp55
 70
     1
102
RTVSPropertyOp56
 70
     1
102
RTVSPropertyOp57
 70
     1
102
RTVSPropertyOp58
 70
     1
102
RTVSPropertyOp59
 70
     1
102
RTVSPropertyOp60
 70
     1
102
RTVSPropertyOp61
 70
     1
102
RTVSPropertyOp62
 70
     1
  0
XRECORD
  5
423
102
{ACAD_REACTORS
330
422
102
}
330
422
100
AcDbXrecord
280
     1
102
RTVSPost2010Prop28
280
     0
102
RTVSPost2010PropOp28
 70
     1
102
RTVSPost2010Prop29
280
     1
102
RTVSPost2010PropOp29
 70
     1
102
RTVSPost2010Prop30
280
     1
102
RTVSPost2010PropOp30
 70
     1
102
RTVSPost2010Prop31
280
     0
102
RTVSPost2010PropOp31
 70
     1
102
RTVSPost2010Prop32
280
     0
102
RTVSPost2010PropOp32
 70
     1
102
RTVSPost2010Prop33
280
     0
102
RTVSPost2010PropOp33
 70
     1
102
RTVSPost2010Prop34
280
     0
102
RTVSPost2010PropOp34
 70
     1
102
RTVSPost2010Prop35
280
     0
102
RTVSPost2010PropOp35
 70
     1
102
RTVSPost2010Prop36
280
     0
102
RTVSPost2010PropOp36
 70
     1
102
RTVSPost2010Prop37
 90
       50
102
RTVSPost2010PropOp37
 70
     1
102
RTVSPost2010Prop38
140
0.0
102
RTVSPost2010PropOp38
 70
     1
102
RTVSPost2010Prop39
140
1.0
102
RTVSPost2010PropOp39
 70
     1
102
RTVSPost2010Prop40
 90
        0
102
RTVSPost2010PropOp40
 70
     1
102
RTVSPost2010Prop41ColorIndex
 90
       18
102
RTVSPost2010Prop41ColorRGB
 90
        0
102
RTVSPost2010PropOp41
 70
     1
102
RTVSPost2010Prop42
 90
       50
102
RTVSPost2010PropOp42
 70
     1
102
RTVSPost2010Prop43
 90
        3
102
RTVSPost2010PropOp43
 70
     1
102
RTVSPost2010Prop44ColorIndex
 90
        5
102
RTVSPost2010Prop44ColorRGB
 90
      255
102
RTVSPost2010PropOp44
 70
     1
102
RTVSPost2010Prop45
280
     0
102
RTVSPost2010PropOp45
 70
     1
102
RTVSPost2010Prop46
 90
       50
102
RTVSPost2010PropOp46
 70
     1
102
RTVSPost2010Prop47
 90
       50
102
RTVSPost2010PropOp47
 70
     1
102
RTVSPost2010Prop48
 90
       50
102
RTVSPost2010PropOp48
 70
     1
102
RTVSPost2010Prop49
280
     0
102
RTVSPost2010PropOp49
 70
     1
102
RTVSPost2010Prop50
 90
       50
102
RTVSPost2010PropOp50
 70
     1
102
RTVSPost2010Prop51ColorIndex
 90
      256
102
RTVSPost2010Prop51ColorRGB
 90
-16777216
102
RTVSPost2010PropOp51
 70
     0
102
RTVSPost2010Prop52
140
1.0
102
RTVSPost2010PropOp52
 70
     0
102
RTVSPost2010Prop53
 90
        2
102
RTVSPost2010PropOp53
 70
     1
102
RTVSPost2010Prop54
  1
strokes_ogs.tif
102
RTVSPost2010PropOp54
 70
     1
102
RTVSPost2010Prop55
280
     0
102
RTVSPost2010PropOp55
 70
     1
102
RTVSPost2010Prop56
140
1.0
102
RTVSPost2010PropOp56
 70
     1
102
RTVSPost2010Prop57
140
1.0
102
RTVSPost2010PropOp57
 70
     1
102
RTVSPropertyOp0
 70
     1
102
RTVSPropertyOp1
 70
     1
102
RTVSPropertyOp2
 70
     1
102
RTVSPropertyOp3
 70
     1
102
RTVSPropertyOp4
 70
     1
102
RTVSPropertyOp5
 70
     1
102
RTVSPropertyOp6
 70
     1
102
RTVSPropertyOp7
 70
     1
102
RTVSPropertyOp8
 70
     1
102
RTVSPropertyOp9
 70
     1
102
RTVSPropertyOp10
 70
     1
102
RTVSPropertyOp11
 70
     1
102
RTVSPropertyOp12
 70
     1
102
RTVSPropertyOp13
 70
     1
102
RTVSPropertyOp14
 70
     1
102
RTVSPropertyOp15
 70
     1
102
RTVSPropertyOp16
 70
     1
102
RTVSPropertyOp17
 70
     1
102
RTVSPropertyOp18
 70
     1
102
RTVSPropertyOp19
 70
     1
102
RTVSPropertyOp20
 70
     1
102
RTVSPropertyOp21
 70
     1
102
RTVSPropertyOp22
 70
     1
102
RTVSPropertyOp23
 70
     1
102
RTVSPropertyOp24
 70
     1
102
RTVSPropertyOp25
 70
     1
102
RTVSPropertyOp26
 70
     1
102
RTVSPropertyOp27
 70
     1
102
RTVSPropertyOp28
 70
     1
102
RTVSPropertyOp29
 70
     1
102
RTVSPropertyOp30
 70
     1
102
RTVSPropertyOp31
 70
     1
102
RTVSPropertyOp32
 70
     1
102
RTVSPropertyOp33
 70
     1
102
RTVSPropertyOp34
 70
     1
102
RTVSPropertyOp35
 70
     1
102
RTVSPropertyOp36
 70
     1
102
RTVSPropertyOp37
 70
     1
102
RTVSPropertyOp38
 70
     1
102
RTVSPropertyOp39
 70
     1
102
RTVSPropertyOp40
 70
     1
102
RTVSPropertyOp41
 70
     1
102
RTVSPropertyOp42
 70
     1
102
RTVSPropertyOp43
 70
     1
102
RTVSPropertyOp44
 70
     1
102
RTVSPropertyOp45
 70
     1
102
RTVSPropertyOp46
 70
     1
102
RTVSPropertyOp47
 70
     1
102
RTVSPropertyOp48
 70
     1
102
RTVSPropertyOp49
 70
     1
102
RTVSPropertyOp50
 70
     1
102
RTVSPropertyOp51
 70
     0
102
RTVSPropertyOp52
 70
     0
102
RTVSPropertyOp53
 70
     1
102
RTVSPropertyOp54
 70
     1
102
RTVSPropertyOp55
 70
     1
102
RTVSPropertyOp56
 70
     1
102
RTVSPropertyOp57
 70
     1
102
RTVSPropertyOp58
 70
     1
102
RTVSPropertyOp59
 70
     1
102
RTVSPropertyOp60
 70
     1
102
RTVSPropertyOp61
 70
     1
102
RTVSPropertyOp62
 70
     1
  0
XRECORD
  5
421
102
{ACAD_REACTORS
330
420
102
}
330
420
100
AcDbXrecord
280
     1
102
RTVSPost2010Prop28
280
     0
102
RTVSPost2010PropOp28
 70
     1
102
RTVSPost2010Prop29
280
     1
102
RTVSPost2010PropOp29
 70
     1
102
RTVSPost2010Prop30
280
     1
102
RTVSPost2010PropOp30
 70
     1
102
RTVSPost2010Prop31
280
     0
102
RTVSPost2010PropOp31
 70
     1
102
RTVSPost2010Prop32
280
     0
102
RTVSPost2010PropOp32
 70
     1
102
RTVSPost2010Prop33
280
     0
102
RTVSPost2010PropOp33
 70
     1
102
RTVSPost2010Prop34
280
     0
102
RTVSPost2010PropOp34
 70
     1
102
RTVSPost2010Prop35
280
     0
102
RTVSPost2010PropOp35
 70
     1
102
RTVSPost2010Prop36
280
     0
102
RTVSPost2010PropOp36
 70
     1
102
RTVSPost2010Prop37
 90
       50
102
RTVSPost2010PropOp37
 70
     1
102
RTVSPost2010Prop38
140
0.0
102
RTVSPost2010PropOp38
 70
     1
102
RTVSPost2010Prop39
140
1.0
102
RTVSPost2010PropOp39
 70
     1
102
RTVSPost2010Prop40
 90
        0
102
RTVSPost2010PropOp40
 70
     1
102
RTVSPost2010Prop41ColorIndex
 90
       18
102
RTVSPost2010Prop41ColorRGB
 90
        0
102
RTVSPost2010PropOp41
 70
     1
102
RTVSPost2010Prop42
 90
       50
102
RTVSPost2010PropOp42
 70
     1
102
RTVSPost2010Prop43
 90
        3
102
RTVSPost2010PropOp43
 70
     1
102
RTVSPost2010Prop44ColorIndex
 90
        5
102
RTVSPost2010Prop44ColorRGB
 90
      255
102
RTVSPost2010PropOp44
 70
     1
102
RTVSPost2010Prop45
280
     0
102
RTVSPost2010PropOp45
 70
     1
102
RTVSPost2010Prop46
 90
       50
102
RTVSPost2010PropOp46
 70
     1
102
RTVSPost2010Prop47
 90
       50
102
RTVSPost2010PropOp47
 70
     1
102
RTVSPost2010Prop48
 90
       50
102
RTVSPost2010PropOp48
 70
     1
102
RTVSPost2010Prop49
280
     0
102
RTVSPost2010PropOp49
 70
     1
102
RTVSPost2010Prop50
 90
       50
102
RTVSPost2010PropOp50
 70
     1
102
RTVSPost2010Prop51ColorIndex
 90
      256
102
RTVSPost2010Prop51ColorRGB
 90
-16777216
102
RTVSPost2010PropOp51
 70
     0
102
RTVSPost2010Prop52
140
1.0
102
RTVSPost2010PropOp52
 70
     0
102
RTVSPost2010Prop53
 90
        2
102
RTVSPost2010PropOp53
 70
     1
102
RTVSPost2010Prop54
  1
strokes_ogs.tif
102
RTVSPost2010PropOp54
 70
     1
102
RTVSPost2010Prop55
280
     0
102
RTVSPost2010PropOp55
 70
     1
102
RTVSPost2010Prop56
140
1.0
102
RTVSPost2010PropOp56
 70
     1
102
RTVSPost2010Prop57
140
1.0
102
RTVSPost2010PropOp57
 70
     1
102
RTVSPropertyOp0
 70
     1
102
RTVSPropertyOp1
 70
     1
102
RTVSPropertyOp2
 70
     1
102
RTVSPropertyOp3
 70
     1
102
RTVSPropertyOp4
 70
     1
102
RTVSPropertyOp5
 70
     1
102
RTVSPropertyOp6
 70
     1
102
RTVSPropertyOp7
 70
     1
102
RTVSPropertyOp8
 70
     1
102
RTVSPropertyOp9
 70
     1
102
RTVSPropertyOp10
 70
     1
102
RTVSPropertyOp11
 70
     1
102
RTVSPropertyOp12
 70
     1
102
RTVSPropertyOp13
 70
     1
102
RTVSPropertyOp14
 70
     1
102
RTVSPropertyOp15
 70
     1
102
RTVSPropertyOp16
 70
     1
102
RTVSPropertyOp17
 70
     1
102
RTVSPropertyOp18
 70
     1
102
RTVSPropertyOp19
 70
     1
102
RTVSPropertyOp20
 70
     1
102
RTVSPropertyOp21
 70
     1
102
RTVSPropertyOp22
 70
     1
102
RTVSPropertyOp23
 70
     1
102
RTVSPropertyOp24
 70
     1
102
RTVSPropertyOp25
 70
     1
102
RTVSPropertyOp26
 70
     1
102
RTVSPropertyOp27
 70
     1
102
RTVSPropertyOp28
 70
     1
102
RTVSPropertyOp29
 70
     1
102
RTVSPropertyOp30
 70
     1
102
RTVSPropertyOp31
 70
     1
102
RTVSPropertyOp32
 70
     1
102
RTVSPropertyOp33
 70
     1
102
RTVSPropertyOp34
 70
     1
102
RTVSPropertyOp35
 70
     1
102
RTVSPropertyOp36
 70
     1
102
RTVSPropertyOp37
 70
     1
102
RTVSPropertyOp38
 70
     1
102
RTVSPropertyOp39
 70
     1
102
RTVSPropertyOp40
 70
     1
102
RTVSPropertyOp41
 70
     1
102
RTVSPropertyOp42
 70
     1
102
RTVSPropertyOp43
 70
     1
102
RTVSPropertyOp44
 70
     1
102
RTVSPropertyOp45
 70
     1
102
RTVSPropertyOp46
 70
     1
102
RTVSPropertyOp47
 70
     1
102
RTVSPropertyOp48
 70
     1
102
RTVSPropertyOp49
 70
     1
102
RTVSPropertyOp50
 70
     1
102
RTVSPropertyOp51
 70
     0
102
RTVSPropertyOp52
 70
     0
102
RTVSPropertyOp53
 70
     1
102
RTVSPropertyOp54
 70
     1
102
RTVSPropertyOp55
 70
     1
102
RTVSPropertyOp56
 70
     1
102
RTVSPropertyOp57
 70
     1
102
RTVSPropertyOp58
 70
     1
102
RTVSPropertyOp59
 70
     1
102
RTVSPropertyOp60
 70
     1
102
RTVSPropertyOp61
 70
     1
102
RTVSPropertyOp62
 70
     1
  0
XRECORD
  5
41B
102
{ACAD_REACTORS
330
41A
102
}
330
41A
100
AcDbXrecord
280
     1
102
RTVSPost2010Prop28
280
     0
102
RTVSPost2010PropOp28
 70
     1
102
RTVSPost2010Prop29
280
     1
102
RTVSPost2010PropOp29
 70
     1
102
RTVSPost2010Prop30
280
     1
102
RTVSPost2010PropOp30
 70
     1
102
RTVSPost2010Prop31
280
     0
102
RTVSPost2010PropOp31
 70
     1
102
RTVSPost2010Prop32
280
     0
102
RTVSPost2010PropOp32
 70
     1
102
RTVSPost2010Prop33
280
     0
102
RTVSPost2010PropOp33
 70
     1
102
RTVSPost2010Prop34
280
     0
102
RTVSPost2010PropOp34
 70
     1
102
RTVSPost2010Prop35
280
     0
102
RTVSPost2010PropOp35
 70
     1
102
RTVSPost2010Prop36
280
     0
102
RTVSPost2010PropOp36
 70
     1
102
RTVSPost2010Prop37
 90
       50
102
RTVSPost2010PropOp37
 70
     1
102
RTVSPost2010Prop38
140
0.0
102
RTVSPost2010PropOp38
 70
     1
102
RTVSPost2010Prop39
140
1.0
102
RTVSPost2010PropOp39
 70
     1
102
RTVSPost2010Prop40
 90
        0
102
RTVSPost2010PropOp40
 70
     1
102
RTVSPost2010Prop41ColorIndex
 90
       18
102
RTVSPost2010Prop41ColorRGB
 90
        0
102
RTVSPost2010PropOp41
 70
     1
102
RTVSPost2010Prop42
 90
       50
102
RTVSPost2010PropOp42
 70
     1
102
RTVSPost2010Prop43
 90
        3
102
RTVSPost2010PropOp43
 70
     1
102
RTVSPost2010Prop44ColorIndex
 90
        5
102
RTVSPost2010Prop44ColorRGB
 90
      255
102
RTVSPost2010PropOp44
 70
     1
102
RTVSPost2010Prop45
280
     0
102
RTVSPost2010PropOp45
 70
     1
102
RTVSPost2010Prop46
 90
       50
102
RTVSPost2010PropOp46
 70
     1
102
RTVSPost2010Prop47
 90
       50
102
RTVSPost2010PropOp47
 70
     1
102
RTVSPost2010Prop48
 90
       50
102
RTVSPost2010PropOp48
 70
     1
102
RTVSPost2010Prop49
280
     0
102
RTVSPost2010PropOp49
 70
     1
102
RTVSPost2010Prop50
 90
       50
102
RTVSPost2010PropOp50
 70
     1
102
RTVSPost2010Prop51ColorIndex
 90
      256
102
RTVSPost2010Prop51ColorRGB
 90
-16777216
102
RTVSPost2010PropOp51
 70
     0
102
RTVSPost2010Prop52
140
1.0
102
RTVSPost2010PropOp52
 70
     0
102
RTVSPost2010Prop53
 90
        2
102
RTVSPost2010PropOp53
 70
     1
102
RTVSPost2010Prop54
  1
strokes_ogs.tif
102
RTVSPost2010PropOp54
 70
     1
102
RTVSPost2010Prop55
280
     0
102
RTVSPost2010PropOp55
 70
     1
102
RTVSPost2010Prop56
140
1.0
102
RTVSPost2010PropOp56
 70
     1
102
RTVSPost2010Prop57
140
1.0
102
RTVSPost2010PropOp57
 70
     1
102
RTVSPropertyOp0
 70
     1
102
RTVSPropertyOp1
 70
     1
102
RTVSPropertyOp2
 70
     1
102
RTVSPropertyOp3
 70
     1
102
RTVSPropertyOp4
 70
     1
102
RTVSPropertyOp5
 70
     1
102
RTVSPropertyOp6
 70
     1
102
RTVSPropertyOp7
 70
     1
102
RTVSPropertyOp8
 70
     1
102
RTVSPropertyOp9
 70
     1
102
RTVSPropertyOp10
 70
     1
102
RTVSPropertyOp11
 70
     1
102
RTVSPropertyOp12
 70
     1
102
RTVSPropertyOp13
 70
     1
102
RTVSPropertyOp14
 70
     1
102
RTVSPropertyOp15
 70
     1
102
RTVSPropertyOp16
 70
     1
102
RTVSPropertyOp17
 70
     1
102
RTVSPropertyOp18
 70
     1
102
RTVSPropertyOp19
 70
     1
102
RTVSPropertyOp20
 70
     1
102
RTVSPropertyOp21
 70
     1
102
RTVSPropertyOp22
 70
     1
102
RTVSPropertyOp23
 70
     1
102
RTVSPropertyOp24
 70
     1
102
RTVSPropertyOp25
 70
     1
102
RTVSPropertyOp26
 70
     1
102
RTVSPropertyOp27
 70
     1
102
RTVSPropertyOp28
 70
     1
102
RTVSPropertyOp29
 70
     1
102
RTVSPropertyOp30
 70
     1
102
RTVSPropertyOp31
 70
     1
102
RTVSPropertyOp32
 70
     1
102
RTVSPropertyOp33
 70
     1
102
RTVSPropertyOp34
 70
     1
102
RTVSPropertyOp35
 70
     1
102
RTVSPropertyOp36
 70
     1
102
RTVSPropertyOp37
 70
     1
102
RTVSPropertyOp38
 70
     1
102
RTVSPropertyOp39
 70
     1
102
RTVSPropertyOp40
 70
     1
102
RTVSPropertyOp41
 70
     1
102
RTVSPropertyOp42
 70
     1
102
RTVSPropertyOp43
 70
     1
102
RTVSPropertyOp44
 70
     1
102
RTVSPropertyOp45
 70
     1
102
RTVSPropertyOp46
 70
     1
102
RTVSPropertyOp47
 70
     1
102
RTVSPropertyOp48
 70
     1
102
RTVSPropertyOp49
 70
     1
102
RTVSPropertyOp50
 70
     1
102
RTVSPropertyOp51
 70
     0
102
RTVSPropertyOp52
 70
     0
102
RTVSPropertyOp53
 70
     1
102
RTVSPropertyOp54
 70
     1
102
RTVSPropertyOp55
 70
     1
102
RTVSPropertyOp56
 70
     1
102
RTVSPropertyOp57
 70
     1
102
RTVSPropertyOp58
 70
     1
102
RTVSPropertyOp59
 70
     1
102
RTVSPropertyOp60
 70
     1
102
RTVSPropertyOp61
 70
     1
102
RTVSPropertyOp62
 70
     1
  0
XRECORD
  5
41D
102
{ACAD_REACTORS
330
41C
102
}
330
41C
100
AcDbXrecord
280
     1
102
RTVSPost2010Prop28
280
     0
102
RTVSPost2010PropOp28
 70
     1
102
RTVSPost2010Prop29
280
     1
102
RTVSPost2010PropOp29
 70
     1
102
RTVSPost2010Prop30
280
     1
102
RTVSPost2010PropOp30
 70
     1
102
RTVSPost2010Prop31
280
     0
102
RTVSPost2010PropOp31
 70
     1
102
RTVSPost2010Prop32
280
     0
102
RTVSPost2010PropOp32
 70
     1
102
RTVSPost2010Prop33
280
     0
102
RTVSPost2010PropOp33
 70
     1
102
RTVSPost2010Prop34
280
     0
102
RTVSPost2010PropOp34
 70
     1
102
RTVSPost2010Prop35
280
     0
102
RTVSPost2010PropOp35
 70
     1
102
RTVSPost2010Prop36
280
     0
102
RTVSPost2010PropOp36
 70
     1
102
RTVSPost2010Prop37
 90
       50
102
RTVSPost2010PropOp37
 70
     1
102
RTVSPost2010Prop38
140
0.0
102
RTVSPost2010PropOp38
 70
     1
102
RTVSPost2010Prop39
140
1.0
102
RTVSPost2010PropOp39
 70
     1
102
RTVSPost2010Prop40
 90
        0
102
RTVSPost2010PropOp40
 70
     1
102
RTVSPost2010Prop41ColorIndex
 90
       18
102
RTVSPost2010Prop41ColorRGB
 90
        0
102
RTVSPost2010PropOp41
 70
     1
102
RTVSPost2010Prop42
 90
       50
102
RTVSPost2010PropOp42
 70
     1
102
RTVSPost2010Prop43
 90
        3
102
RTVSPost2010PropOp43
 70
     1
102
RTVSPost2010Prop44ColorIndex
 90
        5
102
RTVSPost2010Prop44ColorRGB
 90
      255
102
RTVSPost2010PropOp44
 70
     1
102
RTVSPost2010Prop45
280
     0
102
RTVSPost2010PropOp45
 70
     1
102
RTVSPost2010Prop46
 90
       50
102
RTVSPost2010PropOp46
 70
     1
102
RTVSPost2010Prop47
 90
       50
102
RTVSPost2010PropOp47
 70
     1
102
RTVSPost2010Prop48
 90
       50
102
RTVSPost2010PropOp48
 70
     1
102
RTVSPost2010Prop49
280
     0
102
RTVSPost2010PropOp49
 70
     1
102
RTVSPost2010Prop50
 90
       50
102
RTVSPost2010PropOp50
 70
     1
102
RTVSPost2010Prop51ColorIndex
 90
      256
102
RTVSPost2010Prop51ColorRGB
 90
-16777216
102
RTVSPost2010PropOp51
 70
     0
102
RTVSPost2010Prop52
140
1.0
102
RTVSPost2010PropOp52
 70
     0
102
RTVSPost2010Prop53
 90
        2
102
RTVSPost2010PropOp53
 70
     1
102
RTVSPost2010Prop54
  1
strokes_ogs.tif
102
RTVSPost2010PropOp54
 70
     1
102
RTVSPost2010Prop55
280
     0
102
RTVSPost2010PropOp55
 70
     1
102
RTVSPost2010Prop56
140
1.0
102
RTVSPost2010PropOp56
 70
     1
102
RTVSPost2010Prop57
140
1.0
102
RTVSPost2010PropOp57
 70
     1
102
RTVSPropertyOp0
 70
     1
102
RTVSPropertyOp1
 70
     1
102
RTVSPropertyOp2
 70
     1
102
RTVSPropertyOp3
 70
     1
102
RTVSPropertyOp4
 70
     1
102
RTVSPropertyOp5
 70
     1
102
RTVSPropertyOp6
 70
     1
102
RTVSPropertyOp7
 70
     1
102
RTVSPropertyOp8
 70
     1
102
RTVSPropertyOp9
 70
     1
102
RTVSPropertyOp10
 70
     1
102
RTVSPropertyOp11
 70
     1
102
RTVSPropertyOp12
 70
     1
102
RTVSPropertyOp13
 70
     1
102
RTVSPropertyOp14
 70
     1
102
RTVSPropertyOp15
 70
     1
102
RTVSPropertyOp16
 70
     1
102
RTVSPropertyOp17
 70
     1
102
RTVSPropertyOp18
 70
     1
102
RTVSPropertyOp19
 70
     1
102
RTVSPropertyOp20
 70
     1
102
RTVSPropertyOp21
 70
     1
102
RTVSPropertyOp22
 70
     1
102
RTVSPropertyOp23
 70
     1
102
RTVSPropertyOp24
 70
     1
102
RTVSPropertyOp25
 70
     1
102
RTVSPropertyOp26
 70
     1
102
RTVSPropertyOp27
 70
     1
102
RTVSPropertyOp28
 70
     1
102
RTVSPropertyOp29
 70
     1
102
RTVSPropertyOp30
 70
     1
102
RTVSPropertyOp31
 70
     1
102
RTVSPropertyOp32
 70
     1
102
RTVSPropertyOp33
 70
     1
102
RTVSPropertyOp34
 70
     1
102
RTVSPropertyOp35
 70
     1
102
RTVSPropertyOp36
 70
     1
102
RTVSPropertyOp37
 70
     1
102
RTVSPropertyOp38
 70
     1
102
RTVSPropertyOp39
 70
     1
102
RTVSPropertyOp40
 70
     1
102
RTVSPropertyOp41
 70
     1
102
RTVSPropertyOp42
 70
     1
102
RTVSPropertyOp43
 70
     1
102
RTVSPropertyOp44
 70
     1
102
RTVSPropertyOp45
 70
     1
102
RTVSPropertyOp46
 70
     1
102
RTVSPropertyOp47
 70
     1
102
RTVSPropertyOp48
 70
     1
102
RTVSPropertyOp49
 70
     1
102
RTVSPropertyOp50
 70
     1
102
RTVSPropertyOp51
 70
     0
102
RTVSPropertyOp52
 70
     0
102
RTVSPropertyOp53
 70
     1
102
RTVSPropertyOp54
 70
     1
102
RTVSPropertyOp55
 70
     1
102
RTVSPropertyOp56
 70
     1
102
RTVSPropertyOp57
 70
     1
102
RTVSPropertyOp58
 70
     1
102
RTVSPropertyOp59
 70
     1
102
RTVSPropertyOp60
 70
     1
102
RTVSPropertyOp61
 70
     1
102
RTVSPropertyOp62
 70
     1
  0
XRECORD
  5
40D
102
{ACAD_REACTORS
330
40C
102
}
330
40C
100
AcDbXrecord
280
     1
102
RTVSPost2010Prop28
280
     0
102
RTVSPost2010PropOp28
 70
     1
102
RTVSPost2010Prop29
280
     1
102
RTVSPost2010PropOp29
 70
     1
102
RTVSPost2010Prop30
280
     1
102
RTVSPost2010PropOp30
 70
     1
102
RTVSPost2010Prop31
280
     0
102
RTVSPost2010PropOp31
 70
     1
102
RTVSPost2010Prop32
280
     0
102
RTVSPost2010PropOp32
 70
     1
102
RTVSPost2010Prop33
280
     0
102
RTVSPost2010PropOp33
 70
     1
102
RTVSPost2010Prop34
280
     0
102
RTVSPost2010PropOp34
 70
     1
102
RTVSPost2010Prop35
280
     0
102
RTVSPost2010PropOp35
 70
     1
102
RTVSPost2010Prop36
280
     0
102
RTVSPost2010PropOp36
 70
     1
102
RTVSPost2010Prop37
 90
       50
102
RTVSPost2010PropOp37
 70
     1
102
RTVSPost2010Prop38
140
0.0
102
RTVSPost2010PropOp38
 70
     1
102
RTVSPost2010Prop39
140
1.0
102
RTVSPost2010PropOp39
 70
     1
102
RTVSPost2010Prop40
 90
        0
102
RTVSPost2010PropOp40
 70
     1
102
RTVSPost2010Prop41ColorIndex
 90
       18
102
RTVSPost2010Prop41ColorRGB
 90
        0
102
RTVSPost2010PropOp41
 70
     1
102
RTVSPost2010Prop42
 90
       50
102
RTVSPost2010PropOp42
 70
     1
102
RTVSPost2010Prop43
 90
        3
102
RTVSPost2010PropOp43
 70
     1
102
RTVSPost2010Prop44ColorIndex
 90
        5
102
RTVSPost2010Prop44ColorRGB
 90
      255
102
RTVSPost2010PropOp44
 70
     1
102
RTVSPost2010Prop45
280
     0
102
RTVSPost2010PropOp45
 70
     1
102
RTVSPost2010Prop46
 90
       50
102
RTVSPost2010PropOp46
 70
     1
102
RTVSPost2010Prop47
 90
       50
102
RTVSPost2010PropOp47
 70
     1
102
RTVSPost2010Prop48
 90
       50
102
RTVSPost2010PropOp48
 70
     1
102
RTVSPost2010Prop49
280
     0
102
RTVSPost2010PropOp49
 70
     1
102
RTVSPost2010Prop50
 90
       50
102
RTVSPost2010PropOp50
 70
     1
102
RTVSPost2010Prop51ColorIndex
 90
      256
102
RTVSPost2010Prop51ColorRGB
 90
-16777216
102
RTVSPost2010PropOp51
 70
     0
102
RTVSPost2010Prop52
140
1.0
102
RTVSPost2010PropOp52
 70
     0
102
RTVSPost2010Prop53
 90
        2
102
RTVSPost2010PropOp53
 70
     1
102
RTVSPost2010Prop54
  1
strokes_ogs.tif
102
RTVSPost2010PropOp54
 70
     1
102
RTVSPost2010Prop55
280
     0
102
RTVSPost2010PropOp55
 70
     1
102
RTVSPost2010Prop56
140
1.0
102
RTVSPost2010PropOp56
 70
     1
102
RTVSPost2010Prop57
140
1.0
102
RTVSPost2010PropOp57
 70
     1
102
RTVSPropertyOp0
 70
     1
102
RTVSPropertyOp1
 70
     1
102
RTVSPropertyOp2
 70
     1
102
RTVSPropertyOp3
 70
     1
102
RTVSPropertyOp4
 70
     1
102
RTVSPropertyOp5
 70
     1
102
RTVSPropertyOp6
 70
     1
102
RTVSPropertyOp7
 70
     1
102
RTVSPropertyOp8
 70
     1
102
RTVSPropertyOp9
 70
     1
102
RTVSPropertyOp10
 70
     1
102
RTVSPropertyOp11
 70
     1
102
RTVSPropertyOp12
 70
     1
102
RTVSPropertyOp13
 70
     1
102
RTVSPropertyOp14
 70
     1
102
RTVSPropertyOp15
 70
     1
102
RTVSPropertyOp16
 70
     1
102
RTVSPropertyOp17
 70
     1
102
RTVSPropertyOp18
 70
     1
102
RTVSPropertyOp19
 70
     1
102
RTVSPropertyOp20
 70
     1
102
RTVSPropertyOp21
 70
     1
102
RTVSPropertyOp22
 70
     1
102
RTVSPropertyOp23
 70
     1
102
RTVSPropertyOp24
 70
     1
102
RTVSPropertyOp25
 70
     1
102
RTVSPropertyOp26
 70
     1
102
RTVSPropertyOp27
 70
     1
102
RTVSPropertyOp28
 70
     1
102
RTVSPropertyOp29
 70
     1
102
RTVSPropertyOp30
 70
     1
102
RTVSPropertyOp31
 70
     1
102
RTVSPropertyOp32
 70
     1
102
RTVSPropertyOp33
 70
     1
102
RTVSPropertyOp34
 70
     1
102
RTVSPropertyOp35
 70
     1
102
RTVSPropertyOp36
 70
     1
102
RTVSPropertyOp37
 70
     1
102
RTVSPropertyOp38
 70
     1
102
RTVSPropertyOp39
 70
     1
102
RTVSPropertyOp40
 70
     1
102
RTVSPropertyOp41
 70
     1
102
RTVSPropertyOp42
 70
     1
102
RTVSPropertyOp43
 70
     1
102
RTVSPropertyOp44
 70
     1
102
RTVSPropertyOp45
 70
     1
102
RTVSPropertyOp46
 70
     1
102
RTVSPropertyOp47
 70
     1
102
RTVSPropertyOp48
 70
     1
102
RTVSPropertyOp49
 70
     1
102
RTVSPropertyOp50
 70
     1
102
RTVSPropertyOp51
 70
     0
102
RTVSPropertyOp52
 70
     0
102
RTVSPropertyOp53
 70
     1
102
RTVSPropertyOp54
 70
     1
102
RTVSPropertyOp55
 70
     1
102
RTVSPropertyOp56
 70
     1
102
RTVSPropertyOp57
 70
     1
102
RTVSPropertyOp58
 70
     1
102
RTVSPropertyOp59
 70
     1
102
RTVSPropertyOp60
 70
     1
102
RTVSPropertyOp61
 70
     1
102
RTVSPropertyOp62
 70
     1
  0
XRECORD
  5
3FF
102
{ACAD_REACTORS
330
3FE
102
}
330
3FE
100
AcDbXrecord
280
     1
102
RTVSPost2010Prop28
280
     0
102
RTVSPost2010PropOp28
 70
     1
102
RTVSPost2010Prop29
280
     1
102
RTVSPost2010PropOp29
 70
     1
102
RTVSPost2010Prop30
280
     1
102
RTVSPost2010PropOp30
 70
     1
102
RTVSPost2010Prop31
280
     0
102
RTVSPost2010PropOp31
 70
     1
102
RTVSPost2010Prop32
280
     0
102
RTVSPost2010PropOp32
 70
     1
102
RTVSPost2010Prop33
280
     0
102
RTVSPost2010PropOp33
 70
     1
102
RTVSPost2010Prop34
280
     0
102
RTVSPost2010PropOp34
 70
     1
102
RTVSPost2010Prop35
280
     0
102
RTVSPost2010PropOp35
 70
     1
102
RTVSPost2010Prop36
280
     0
102
RTVSPost2010PropOp36
 70
     1
102
RTVSPost2010Prop37
 90
       50
102
RTVSPost2010PropOp37
 70
     1
102
RTVSPost2010Prop38
140
0.0
102
RTVSPost2010PropOp38
 70
     1
102
RTVSPost2010Prop39
140
1.0
102
RTVSPost2010PropOp39
 70
     1
102
RTVSPost2010Prop40
 90
        0
102
RTVSPost2010PropOp40
 70
     1
102
RTVSPost2010Prop41ColorIndex
 90
       18
102
RTVSPost2010Prop41ColorRGB
 90
        0
102
RTVSPost2010PropOp41
 70
     1
102
RTVSPost2010Prop42
 90
       50
102
RTVSPost2010PropOp42
 70
     1
102
RTVSPost2010Prop43
 90
        3
102
RTVSPost2010PropOp43
 70
     1
102
RTVSPost2010Prop44ColorIndex
 90
        5
102
RTVSPost2010Prop44ColorRGB
 90
      255
102
RTVSPost2010PropOp44
 70
     1
102
RTVSPost2010Prop45
280
     0
102
RTVSPost2010PropOp45
 70
     1
102
RTVSPost2010Prop46
 90
       50
102
RTVSPost2010PropOp46
 70
     1
102
RTVSPost2010Prop47
 90
       50
102
RTVSPost2010PropOp47
 70
     1
102
RTVSPost2010Prop48
 90
       50
102
RTVSPost2010PropOp48
 70
     1
102
RTVSPost2010Prop49
280
     0
102
RTVSPost2010PropOp49
 70
     1
102
RTVSPost2010Prop50
 90
       50
102
RTVSPost2010PropOp50
 70
     1
102
RTVSPost2010Prop51ColorIndex
 90
      256
102
RTVSPost2010Prop51ColorRGB
 90
-16777216
102
RTVSPost2010PropOp51
 70
     0
102
RTVSPost2010Prop52
140
1.0
102
RTVSPost2010PropOp52
 70
     0
102
RTVSPost2010Prop53
 90
        2
102
RTVSPost2010PropOp53
 70
     1
102
RTVSPost2010Prop54
  1
strokes_ogs.tif
102
RTVSPost2010PropOp54
 70
     1
102
RTVSPost2010Prop55
280
     0
102
RTVSPost2010PropOp55
 70
     1
102
RTVSPost2010Prop56
140
1.0
102
RTVSPost2010PropOp56
 70
     1
102
RTVSPost2010Prop57
140
1.0
102
RTVSPost2010PropOp57
 70
     1
102
RTVSPropertyOp0
 70
     1
102
RTVSPropertyOp1
 70
     1
102
RTVSPropertyOp2
 70
     1
102
RTVSPropertyOp3
 70
     1
102
RTVSPropertyOp4
 70
     1
102
RTVSPropertyOp5
 70
     1
102
RTVSPropertyOp6
 70
     1
102
RTVSPropertyOp7
 70
     1
102
RTVSPropertyOp8
 70
     1
102
RTVSPropertyOp9
 70
     1
102
RTVSPropertyOp10
 70
     1
102
RTVSPropertyOp11
 70
     1
102
RTVSPropertyOp12
 70
     1
102
RTVSPropertyOp13
 70
     1
102
RTVSPropertyOp14
 70
     1
102
RTVSPropertyOp15
 70
     1
102
RTVSPropertyOp16
 70
     1
102
RTVSPropertyOp17
 70
     1
102
RTVSPropertyOp18
 70
     1
102
RTVSPropertyOp19
 70
     1
102
RTVSPropertyOp20
 70
     1
102
RTVSPropertyOp21
 70
     1
102
RTVSPropertyOp22
 70
     1
102
RTVSPropertyOp23
 70
     1
102
RTVSPropertyOp24
 70
     1
102
RTVSPropertyOp25
 70
     1
102
RTVSPropertyOp26
 70
     1
102
RTVSPropertyOp27
 70
     1
102
RTVSPropertyOp28
 70
     1
102
RTVSPropertyOp29
 70
     1
102
RTVSPropertyOp30
 70
     1
102
RTVSPropertyOp31
 70
     1
102
RTVSPropertyOp32
 70
     1
102
RTVSPropertyOp33
 70
     1
102
RTVSPropertyOp34
 70
     1
102
RTVSPropertyOp35
 70
     1
102
RTVSPropertyOp36
 70
     1
102
RTVSPropertyOp37
 70
     1
102
RTVSPropertyOp38
 70
     1
102
RTVSPropertyOp39
 70
     1
102
RTVSPropertyOp40
 70
     1
102
RTVSPropertyOp41
 70
     1
102
RTVSPropertyOp42
 70
     1
102
RTVSPropertyOp43
 70
     1
102
RTVSPropertyOp44
 70
     1
102
RTVSPropertyOp45
 70
     1
102
RTVSPropertyOp46
 70
     1
102
RTVSPropertyOp47
 70
     1
102
RTVSPropertyOp48
 70
     1
102
RTVSPropertyOp49
 70
     1
102
RTVSPropertyOp50
 70
     1
102
RTVSPropertyOp51
 70
     0
102
RTVSPropertyOp52
 70
     0
102
RTVSPropertyOp53
 70
     1
102
RTVSPropertyOp54
 70
     1
102
RTVSPropertyOp55
 70
     1
102
RTVSPropertyOp56
 70
     1
102
RTVSPropertyOp57
 70
     1
102
RTVSPropertyOp58
 70
     1
102
RTVSPropertyOp59
 70
     1
102
RTVSPropertyOp60
 70
     1
102
RTVSPropertyOp61
 70
     1
102
RTVSPropertyOp62
 70
     1
  0
XRECORD
  5
41F
102
{ACAD_REACTORS
330
41E
102
}
330
41E
100
AcDbXrecord
280
     1
102
RTVSPost2010Prop28
280
     0
102
RTVSPost2010PropOp28
 70
     1
102
RTVSPost2010Prop29
280
     1
102
RTVSPost2010PropOp29
 70
     1
102
RTVSPost2010Prop30
280
     1
102
RTVSPost2010PropOp30
 70
     1
102
RTVSPost2010Prop31
280
     0
102
RTVSPost2010PropOp31
 70
     1
102
RTVSPost2010Prop32
280
     0
102
RTVSPost2010PropOp32
 70
     1
102
RTVSPost2010Prop33
280
     0
102
RTVSPost2010PropOp33
 70
     1
102
RTVSPost2010Prop34
280
     0
102
RTVSPost2010PropOp34
 70
     1
102
RTVSPost2010Prop35
280
     0
102
RTVSPost2010PropOp35
 70
     1
102
RTVSPost2010Prop36
280
     0
102
RTVSPost2010PropOp36
 70
     1
102
RTVSPost2010Prop37
 90
       50
102
RTVSPost2010PropOp37
 70
     1
102
RTVSPost2010Prop38
140
0.0
102
RTVSPost2010PropOp38
 70
     1
102
RTVSPost2010Prop39
140
1.0
102
RTVSPost2010PropOp39
 70
     1
102
RTVSPost2010Prop40
 90
        0
102
RTVSPost2010PropOp40
 70
     1
102
RTVSPost2010Prop41ColorIndex
 90
       18
102
RTVSPost2010Prop41ColorRGB
 90
        0
102
RTVSPost2010PropOp41
 70
     1
102
RTVSPost2010Prop42
 90
       50
102
RTVSPost2010PropOp42
 70
     1
102
RTVSPost2010Prop43
 90
        3
102
RTVSPost2010PropOp43
 70
     1
102
RTVSPost2010Prop44ColorIndex
 90
        5
102
RTVSPost2010Prop44ColorRGB
 90
      255
102
RTVSPost2010PropOp44
 70
     1
102
RTVSPost2010Prop45
280
     0
102
RTVSPost2010PropOp45
 70
     1
102
RTVSPost2010Prop46
 90
       50
102
RTVSPost2010PropOp46
 70
     1
102
RTVSPost2010Prop47
 90
       50
102
RTVSPost2010PropOp47
 70
     1
102
RTVSPost2010Prop48
 90
       50
102
RTVSPost2010PropOp48
 70
     1
102
RTVSPost2010Prop49
280
     0
102
RTVSPost2010PropOp49
 70
     1
102
RTVSPost2010Prop50
 90
       50
102
RTVSPost2010PropOp50
 70
     1
102
RTVSPost2010Prop51ColorIndex
 90
      256
102
RTVSPost2010Prop51ColorRGB
 90
-16777216
102
RTVSPost2010PropOp51
 70
     0
102
RTVSPost2010Prop52
140
1.0
102
RTVSPost2010PropOp52
 70
     0
102
RTVSPost2010Prop53
 90
        2
102
RTVSPost2010PropOp53
 70
     1
102
RTVSPost2010Prop54
  1
strokes_ogs.tif
102
RTVSPost2010PropOp54
 70
     1
102
RTVSPost2010Prop55
280
     0
102
RTVSPost2010PropOp55
 70
     1
102
RTVSPost2010Prop56
140
1.0
102
RTVSPost2010PropOp56
 70
     1
102
RTVSPost2010Prop57
140
1.0
102
RTVSPost2010PropOp57
 70
     1
102
RTVSPropertyOp0
 70
     1
102
RTVSPropertyOp1
 70
     1
102
RTVSPropertyOp2
 70
     1
102
RTVSPropertyOp3
 70
     1
102
RTVSPropertyOp4
 70
     1
102
RTVSPropertyOp5
 70
     1
102
RTVSPropertyOp6
 70
     1
102
RTVSPropertyOp7
 70
     1
102
RTVSPropertyOp8
 70
     1
102
RTVSPropertyOp9
 70
     1
102
RTVSPropertyOp10
 70
     1
102
RTVSPropertyOp11
 70
     1
102
RTVSPropertyOp12
 70
     1
102
RTVSPropertyOp13
 70
     1
102
RTVSPropertyOp14
 70
     1
102
RTVSPropertyOp15
 70
     1
102
RTVSPropertyOp16
 70
     1
102
RTVSPropertyOp17
 70
     1
102
RTVSPropertyOp18
 70
     1
102
RTVSPropertyOp19
 70
     1
102
RTVSPropertyOp20
 70
     1
102
RTVSPropertyOp21
 70
     1
102
RTVSPropertyOp22
 70
     1
102
RTVSPropertyOp23
 70
     1
102
RTVSPropertyOp24
 70
     1
102
RTVSPropertyOp25
 70
     1
102
RTVSPropertyOp26
 70
     1
102
RTVSPropertyOp27
 70
     1
102
RTVSPropertyOp28
 70
     1
102
RTVSPropertyOp29
 70
     1
102
RTVSPropertyOp30
 70
     1
102
RTVSPropertyOp31
 70
     1
102
RTVSPropertyOp32
 70
     1
102
RTVSPropertyOp33
 70
     1
102
RTVSPropertyOp34
 70
     1
102
RTVSPropertyOp35
 70
     1
102
RTVSPropertyOp36
 70
     1
102
RTVSPropertyOp37
 70
     1
102
RTVSPropertyOp38
 70
     1
102
RTVSPropertyOp39
 70
     1
102
RTVSPropertyOp40
 70
     1
102
RTVSPropertyOp41
 70
     1
102
RTVSPropertyOp42
 70
     1
102
RTVSPropertyOp43
 70
     1
102
RTVSPropertyOp44
 70
     1
102
RTVSPropertyOp45
 70
     1
102
RTVSPropertyOp46
 70
     1
102
RTVSPropertyOp47
 70
     1
102
RTVSPropertyOp48
 70
     1
102
RTVSPropertyOp49
 70
     1
102
RTVSPropertyOp50
 70
     1
102
RTVSPropertyOp51
 70
     0
102
RTVSPropertyOp52
 70
     0
102
RTVSPropertyOp53
 70
     1
102
RTVSPropertyOp54
 70
     1
102
RTVSPropertyOp55
 70
     1
102
RTVSPropertyOp56
 70
     1
102
RTVSPropertyOp57
 70
     1
102
RTVSPropertyOp58
 70
     1
102
RTVSPropertyOp59
 70
     1
102
RTVSPropertyOp60
 70
     1
102
RTVSPropertyOp61
 70
     1
102
RTVSPropertyOp62
 70
     1
  0
ENDSEC
  0
EOF
